  0
SECTION
  2
HEADER
  9
$ACADVER
  1
AC1006
  9
$EXTMIN
 10
-3.627598
 20
-2.042000
  9
$EXTMAX
 10
6.617882
 20
0.029000
  9
$LTSCALE
 40
0.000394
  9
$PDMODE
 70
    35
  9
$PDSIZE
 40
0.000315
  0
ENDSEC
  0
SECTION
  2
TABLES
  0
TABLE
  2
LTYPE
 70
     9
  0
LTYPE
  2
CONTINUOUS
 70
    64
  3
Solid line
 72
    65
 73
     0
 40
0.000000
  0
LTYPE
  2
DASHED
 70
    64
  3
__ __ __ __ __ __ __ __ __ __ __ __ __ __ __
 72
    65
 73
     2
 40
0.000003
 49
0.000002
 49
-0.000001
  0
LTYPE
  2
HIDDEN
 70
    64
  3
 _ _ _ _ _ _ _ _ _ _ _ _ _ _ _ _ _ _ _ _ _ _
 72
    65
 73
     2
 40
0.000001
 49
0.000001
 49
-0.000000
  0
LTYPE
  2
CENTER
 70
    64
  3
____ _ ____ _ ____ _ ____ _ ____ _ ____ _ ____
 72
    65
 73
     4
 40
0.000008
 49
0.000005
 49
-0.000001
 49
0.000001
 49
-0.000001
  0
LTYPE
  2
PHANTOM
 70
    64
  3
_____ _ _ _____ _ _ _____ _ _ _____ _ _ ____
 72
    65
 73
     6
 40
0.000010
 49
0.000005
 49
-0.000001
 49
0.000001
 49
-0.000001
 49
0.000001
 49
-0.000001
  0
LTYPE
  2
DOT
 70
    64
  3
...............................................
 72
    65
 73
     2
 40
0.000001
 49
0.000000
 49
-0.000001
  0
LTYPE
  2
DASHDOT
 70
    64
  3
__ . __ . __ . __ . __ . __ . __ . __ . __ . __
 72
    65
 73
     4
 40
0.000004
 49
0.000002
 49
-0.000001
 49
0.000000
 49
-0.000001
  0
LTYPE
  2
BORDER
 70
    64
  3
__ __ . __ __ . __ __ . __ __ . __ __ . __ __
 72
    65
 73
     6
 40
0.000007
 49
0.000002
 49
-0.000001
 49
0.000002
 49
-0.000001
 49
0.000000
 49
-0.000001
  0
LTYPE
  2
DIVIDE
 70
    64
  3
__ . . __ . . __ . . __ . . __ . . __ . . __
 72
    65
 73
     6
 40
0.000005
 49
0.000002
 49
-0.000001
 49
0.000000
 49
-0.000001
 49
0.000000
 49
-0.000001
  0
LTYPE
  2
DOTDOT
 70
    64
  3
 . .  . .  . .  . .  . .  . . 
 72
    65
 73
     5
 40
0.000002
 49
-0.000001
 49
0.000000
 49
-0.000001
 49
0.000000
 49
-0.000001
  0
ENDTAB
  0
TABLE
  2
STYLE
 70
     0
  0
ENDTAB
  0
TABLE
  2
LAYER
 70
     3
  0
LAYER
  2
FOREGROUND
 70
    64
 62
     7
  6
CONTINUOUS
  0
LAYER
  2
BACKGROUND
 70
    65
 62
    -7
  6
CONTINUOUS
  0
LAYER
  2
EBENE_1
 70
    64
 62
     7
  6
CONTINUOUS
  0
ENDTAB
  0
ENDSEC
  0
SECTION
  2
ENTITIES
  0
POLYLINE
  8
EBENE_1
 62
   146
  6
CONTINUOUS
 66
     1
 40
0.003000
 41
0.003000
 70
     1
  0
VERTEX
  8
EBENE_1
 62
   146
  6
CONTINUOUS
 10
-1.553000
 20
0.029000
  0
VERTEX
  8
EBENE_1
 62
   146
  6
CONTINUOUS
 10
-1.557290
 20
0.028970
  0
VERTEX
  8
EBENE_1
 62
   146
  6
CONTINUOUS
 10
-1.569819
 20
0.028887
  0
VERTEX
  8
EBENE_1
 62
   146
  6
CONTINUOUS
 10
-1.590072
 20
0.028759
  0
VERTEX
  8
EBENE_1
 62
   146
  6
CONTINUOUS
 10
-1.617535
 20
0.028594
  0
VERTEX
  8
EBENE_1
 62
   146
  6
CONTINUOUS
 10
-1.651695
 20
0.028401
  0
VERTEX
  8
EBENE_1
 62
   146
  6
CONTINUOUS
 10
-1.692037
 20
0.028189
  0
VERTEX
  8
EBENE_1
 62
   146
  6
CONTINUOUS
 10
-1.738048
 20
0.027965
  0
VERTEX
  8
EBENE_1
 62
   146
  6
CONTINUOUS
 10
-1.789213
 20
0.027738
  0
VERTEX
  8
EBENE_1
 62
   146
  6
CONTINUOUS
 10
-1.845020
 20
0.027517
  0
VERTEX
  8
EBENE_1
 62
   146
  6
CONTINUOUS
 10
-1.904953
 20
0.027310
  0
VERTEX
  8
EBENE_1
 62
   146
  6
CONTINUOUS
 10
-1.968500
 20
0.027125
  0
VERTEX
  8
EBENE_1
 62
   146
  6
CONTINUOUS
 10
-2.035146
 20
0.026971
  0
VERTEX
  8
EBENE_1
 62
   146
  6
CONTINUOUS
 10
-2.104377
 20
0.026857
  0
VERTEX
  8
EBENE_1
 62
   146
  6
CONTINUOUS
 10
-2.175679
 20
0.026791
  0
VERTEX
  8
EBENE_1
 62
   146
  6
CONTINUOUS
 10
-2.248539
 20
0.026781
  0
VERTEX
  8
EBENE_1
 62
   146
  6
CONTINUOUS
 10
-2.322443
 20
0.026836
  0
VERTEX
  8
EBENE_1
 62
   146
  6
CONTINUOUS
 10
-2.396876
 20
0.026964
  0
VERTEX
  8
EBENE_1
 62
   146
  6
CONTINUOUS
 10
-2.471325
 20
0.027174
  0
VERTEX
  8
EBENE_1
 62
   146
  6
CONTINUOUS
 10
-2.545275
 20
0.027474
  0
VERTEX
  8
EBENE_1
 62
   146
  6
CONTINUOUS
 10
-2.618214
 20
0.027873
  0
VERTEX
  8
EBENE_1
 62
   146
  6
CONTINUOUS
 10
-2.689627
 20
0.028379
  0
VERTEX
  8
EBENE_1
 62
   146
  6
CONTINUOUS
 10
-2.759000
 20
0.029000
  0
VERTEX
  8
EBENE_1
 62
   146
  6
CONTINUOUS
 10
-2.759000
 20
0.029000
  0
VERTEX
  8
EBENE_1
 62
   146
  6
CONTINUOUS
 10
-2.853093
 20
0.025335
  0
VERTEX
  8
EBENE_1
 62
   146
  6
CONTINUOUS
 10
-2.935851
 20
0.013203
  0
VERTEX
  8
EBENE_1
 62
   146
  6
CONTINUOUS
 10
-3.007992
 20
-0.006104
  0
VERTEX
  8
EBENE_1
 62
   146
  6
CONTINUOUS
 10
-3.070234
 20
-0.031294
  0
VERTEX
  8
EBENE_1
 62
   146
  6
CONTINUOUS
 10
-3.123296
 20
-0.061074
  0
VERTEX
  8
EBENE_1
 62
   146
  6
CONTINUOUS
 10
-3.167896
 20
-0.094152
  0
VERTEX
  8
EBENE_1
 62
   146
  6
CONTINUOUS
 10
-3.204752
 20
-0.129235
  0
VERTEX
  8
EBENE_1
 62
   146
  6
CONTINUOUS
 10
-3.234582
 20
-0.165031
  0
VERTEX
  8
EBENE_1
 62
   146
  6
CONTINUOUS
 10
-3.258104
 20
-0.200248
  0
VERTEX
  8
EBENE_1
 62
   146
  6
CONTINUOUS
 10
-3.276037
 20
-0.233593
  0
VERTEX
  8
EBENE_1
 62
   146
  6
CONTINUOUS
 10
-3.289099
 20
-0.263773
  0
VERTEX
  8
EBENE_1
 62
   146
  6
CONTINUOUS
 10
-3.298008
 20
-0.289496
  0
VERTEX
  8
EBENE_1
 62
   146
  6
CONTINUOUS
 10
-3.303482
 20
-0.309470
  0
VERTEX
  8
EBENE_1
 62
   146
  6
CONTINUOUS
 10
-3.306240
 20
-0.322402
  0
VERTEX
  8
EBENE_1
 62
   146
  6
CONTINUOUS
 10
-3.307000
 20
-0.327000
  0
VERTEX
  8
EBENE_1
 62
   146
  6
CONTINUOUS
 10
-3.624000
 20
-1.552000
  0
VERTEX
  8
EBENE_1
 62
   146
  6
CONTINUOUS
 10
-3.627598
 20
-1.637428
  0
VERTEX
  8
EBENE_1
 62
   146
  6
CONTINUOUS
 10
-3.621281
 20
-1.712303
  0
VERTEX
  8
EBENE_1
 62
   146
  6
CONTINUOUS
 10
-3.606387
 20
-1.777319
  0
VERTEX
  8
EBENE_1
 62
   146
  6
CONTINUOUS
 10
-3.584250
 20
-1.833172
  0
VERTEX
  8
EBENE_1
 62
   146
  6
CONTINUOUS
 10
-3.556207
 20
-1.880558
  0
VERTEX
  8
EBENE_1
 62
   146
  6
CONTINUOUS
 10
-3.523594
 20
-1.920174
  0
VERTEX
  8
EBENE_1
 62
   146
  6
CONTINUOUS
 10
-3.487746
 20
-1.952714
  0
VERTEX
  8
EBENE_1
 62
   146
  6
CONTINUOUS
 10
-3.450000
 20
-1.978875
  0
VERTEX
  8
EBENE_1
 62
   146
  6
CONTINUOUS
 10
-3.411691
 20
-1.999352
  0
VERTEX
  8
EBENE_1
 62
   146
  6
CONTINUOUS
 10
-3.374156
 20
-2.014842
  0
VERTEX
  8
EBENE_1
 62
   146
  6
CONTINUOUS
 10
-3.338730
 20
-2.026039
  0
VERTEX
  8
EBENE_1
 62
   146
  6
CONTINUOUS
 10
-3.306750
 20
-2.033641
  0
VERTEX
  8
EBENE_1
 62
   146
  6
CONTINUOUS
 10
-3.279551
 20
-2.038342
  0
VERTEX
  8
EBENE_1
 62
   146
  6
CONTINUOUS
 10
-3.258469
 20
-2.040838
  0
VERTEX
  8
EBENE_1
 62
   146
  6
CONTINUOUS
 10
-3.244840
 20
-2.041825
  0
VERTEX
  8
EBENE_1
 62
   146
  6
CONTINUOUS
 10
-3.240000
 20
-2.042000
  0
VERTEX
  8
EBENE_1
 62
   146
  6
CONTINUOUS
 10
-3.234993
 20
-2.041999
  0
VERTEX
  8
EBENE_1
 62
   146
  6
CONTINUOUS
 10
-3.220434
 20
-2.041993
  0
VERTEX
  8
EBENE_1
 62
   146
  6
CONTINUOUS
 10
-3.197013
 20
-2.041976
  0
VERTEX
  8
EBENE_1
 62
   146
  6
CONTINUOUS
 10
-3.165419
 20
-2.041943
  0
VERTEX
  8
EBENE_1
 62
   146
  6
CONTINUOUS
 10
-3.126344
 20
-2.041888
  0
VERTEX
  8
EBENE_1
 62
   146
  6
CONTINUOUS
 10
-3.080478
 20
-2.041806
  0
VERTEX
  8
EBENE_1
 62
   146
  6
CONTINUOUS
 10
-3.028511
 20
-2.041693
  0
VERTEX
  8
EBENE_1
 62
   146
  6
CONTINUOUS
 10
-2.971134
 20
-2.041541
  0
VERTEX
  8
EBENE_1
 62
   146
  6
CONTINUOUS
 10
-2.909038
 20
-2.041347
  0
VERTEX
  8
EBENE_1
 62
   146
  6
CONTINUOUS
 10
-2.842912
 20
-2.041104
  0
VERTEX
  8
EBENE_1
 62
   146
  6
CONTINUOUS
 10
-2.773447
 20
-2.040807
  0
VERTEX
  8
EBENE_1
 62
   146
  6
CONTINUOUS
 10
-2.701334
 20
-2.040452
  0
VERTEX
  8
EBENE_1
 62
   146
  6
CONTINUOUS
 10
-2.627263
 20
-2.040031
  0
VERTEX
  8
EBENE_1
 62
   146
  6
CONTINUOUS
 10
-2.551924
 20
-2.039541
  0
VERTEX
  8
EBENE_1
 62
   146
  6
CONTINUOUS
 10
-2.476008
 20
-2.038976
  0
VERTEX
  8
EBENE_1
 62
   146
  6
CONTINUOUS
 10
-2.400205
 20
-2.038330
  0
VERTEX
  8
EBENE_1
 62
   146
  6
CONTINUOUS
 10
-2.325206
 20
-2.037598
  0
VERTEX
  8
EBENE_1
 62
   146
  6
CONTINUOUS
 10
-2.251702
 20
-2.036775
  0
VERTEX
  8
EBENE_1
 62
   146
  6
CONTINUOUS
 10
-2.180381
 20
-2.035854
  0
VERTEX
  8
EBENE_1
 62
   146
  6
CONTINUOUS
 10
-2.111936
 20
-2.034832
  0
VERTEX
  8
EBENE_1
 62
   146
  6
CONTINUOUS
 10
-2.047056
 20
-2.033702
  0
VERTEX
  8
EBENE_1
 62
   146
  6
CONTINUOUS
 10
-1.986432
 20
-2.032459
  0
VERTEX
  8
EBENE_1
 62
   146
  6
CONTINUOUS
 10
-1.930755
 20
-2.031098
  0
VERTEX
  8
EBENE_1
 62
   146
  6
CONTINUOUS
 10
-1.880714
 20
-2.029614
  0
VERTEX
  8
EBENE_1
 62
   146
  6
CONTINUOUS
 10
-1.837000
 20
-2.028000
  0
VERTEX
  8
EBENE_1
 62
   146
  6
CONTINUOUS
 10
-1.837000
 20
-2.028000
  0
VERTEX
  8
EBENE_1
 62
   146
  6
CONTINUOUS
 10
-1.750622
 20
-2.009122
  0
VERTEX
  8
EBENE_1
 62
   146
  6
CONTINUOUS
 10
-1.677349
 20
-1.980319
  0
VERTEX
  8
EBENE_1
 62
   146
  6
CONTINUOUS
 10
-1.616152
 20
-1.944059
  0
VERTEX
  8
EBENE_1
 62
   146
  6
CONTINUOUS
 10
-1.566004
 20
-1.902813
  0
VERTEX
  8
EBENE_1
 62
   146
  6
CONTINUOUS
 10
-1.525877
 20
-1.859052
  0
VERTEX
  8
EBENE_1
 62
   146
  6
CONTINUOUS
 10
-1.494743
 20
-1.815246
  0
VERTEX
  8
EBENE_1
 62
   146
  6
CONTINUOUS
 10
-1.471575
 20
-1.773865
  0
VERTEX
  8
EBENE_1
 62
   146
  6
CONTINUOUS
 10
-1.455344
 20
-1.737379
  0
VERTEX
  8
EBENE_1
 62
   146
  6
CONTINUOUS
 10
-1.445023
 20
-1.708260
  0
VERTEX
  8
EBENE_1
 62
   146
  6
CONTINUOUS
 10
-1.439585
 20
-1.688977
  0
VERTEX
  8
EBENE_1
 62
   146
  6
CONTINUOUS
 10
-1.438000
 20
-1.682000
  0
VERTEX
  8
EBENE_1
 62
   146
  6
CONTINUOUS
 10
-1.436775
 20
-1.677623
  0
VERTEX
  8
EBENE_1
 62
   146
  6
CONTINUOUS
 10
-1.433211
 20
-1.664861
  0
VERTEX
  8
EBENE_1
 62
   146
  6
CONTINUOUS
 10
-1.427477
 20
-1.644264
  0
VERTEX
  8
EBENE_1
 62
   146
  6
CONTINUOUS
 10
-1.419741
 20
-1.616385
  0
VERTEX
  8
EBENE_1
 62
   146
  6
CONTINUOUS
 10
-1.410171
 20
-1.581776
  0
VERTEX
  8
EBENE_1
 62
   146
  6
CONTINUOUS
 10
-1.398935
 20
-1.540988
  0
VERTEX
  8
EBENE_1
 62
   146
  6
CONTINUOUS
 10
-1.386201
 20
-1.494574
  0
VERTEX
  8
EBENE_1
 62
   146
  6
CONTINUOUS
 10
-1.372138
 20
-1.443085
  0
VERTEX
  8
EBENE_1
 62
   146
  6
CONTINUOUS
 10
-1.356913
 20
-1.387073
  0
VERTEX
  8
EBENE_1
 62
   146
  6
CONTINUOUS
 10
-1.340696
 20
-1.327089
  0
VERTEX
  8
EBENE_1
 62
   146
  6
CONTINUOUS
 10
-1.323653
 20
-1.263686
  0
VERTEX
  8
EBENE_1
 62
   146
  6
CONTINUOUS
 10
-1.305954
 20
-1.197416
  0
VERTEX
  8
EBENE_1
 62
   146
  6
CONTINUOUS
 10
-1.287765
 20
-1.128830
  0
VERTEX
  8
EBENE_1
 62
   146
  6
CONTINUOUS
 10
-1.269257
 20
-1.058479
  0
VERTEX
  8
EBENE_1
 62
   146
  6
CONTINUOUS
 10
-1.250596
 20
-0.986917
  0
VERTEX
  8
EBENE_1
 62
   146
  6
CONTINUOUS
 10
-1.231950
 20
-0.914694
  0
VERTEX
  8
EBENE_1
 62
   146
  6
CONTINUOUS
 10
-1.213489
 20
-0.842363
  0
VERTEX
  8
EBENE_1
 62
   146
  6
CONTINUOUS
 10
-1.195379
 20
-0.770475
  0
VERTEX
  8
EBENE_1
 62
   146
  6
CONTINUOUS
 10
-1.177790
 20
-0.699583
  0
VERTEX
  8
EBENE_1
 62
   146
  6
CONTINUOUS
 10
-1.160890
 20
-0.630237
  0
VERTEX
  8
EBENE_1
 62
   146
  6
CONTINUOUS
 10
-1.144846
 20
-0.562990
  0
VERTEX
  8
EBENE_1
 62
   146
  6
CONTINUOUS
 10
-1.129826
 20
-0.498394
  0
VERTEX
  8
EBENE_1
 62
   146
  6
CONTINUOUS
 10
-1.116000
 20
-0.437000
  0
VERTEX
  8
EBENE_1
 62
   146
  6
CONTINUOUS
 10
-1.116000
 20
-0.437000
  0
VERTEX
  8
EBENE_1
 62
   146
  6
CONTINUOUS
 10
-1.117777
 20
-0.354972
  0
VERTEX
  8
EBENE_1
 62
   146
  6
CONTINUOUS
 10
-1.129322
 20
-0.283184
  0
VERTEX
  8
EBENE_1
 62
   146
  6
CONTINUOUS
 10
-1.149273
 20
-0.220952
  0
VERTEX
  8
EBENE_1
 62
   146
  6
CONTINUOUS
 10
-1.176266
 20
-0.167594
  0
VERTEX
  8
EBENE_1
 62
   146
  6
CONTINUOUS
 10
-1.208936
 20
-0.122427
  0
VERTEX
  8
EBENE_1
 62
   146
  6
CONTINUOUS
 10
-1.245920
 20
-0.084770
  0
VERTEX
  8
EBENE_1
 62
   146
  6
CONTINUOUS
 10
-1.285854
 20
-0.053938
  0
VERTEX
  8
EBENE_1
 62
   146
  6
CONTINUOUS
 10
-1.327375
 20
-0.029250
  0
VERTEX
  8
EBENE_1
 62
   146
  6
CONTINUOUS
 10
-1.369118
 20
-0.010023
  0
VERTEX
  8
EBENE_1
 62
   146
  6
CONTINUOUS
 10
-1.409721
 20
0.004426
  0
VERTEX
  8
EBENE_1
 62
   146
  6
CONTINUOUS
 10
-1.447818
 20
0.014779
  0
VERTEX
  8
EBENE_1
 62
   146
  6
CONTINUOUS
 10
-1.482047
 20
0.021719
  0
VERTEX
  8
EBENE_1
 62
   146
  6
CONTINUOUS
 10
-1.511043
 20
0.025928
  0
VERTEX
  8
EBENE_1
 62
   146
  6
CONTINUOUS
 10
-1.533443
 20
0.028090
  0
VERTEX
  8
EBENE_1
 62
   146
  6
CONTINUOUS
 10
-1.547884
 20
0.028886
  0
SEQEND
  8
0
  0
POLYLINE
  8
EBENE_1
 62
   146
  6
CONTINUOUS
 66
     1
 40
0.003000
 41
0.003000
 70
     1
  0
VERTEX
  8
EBENE_1
 62
   146
  6
CONTINUOUS
 10
-1.904000
 20
-0.428000
  0
VERTEX
  8
EBENE_1
 62
   146
  6
CONTINUOUS
 10
-1.908405
 20
-0.449901
  0
VERTEX
  8
EBENE_1
 62
   146
  6
CONTINUOUS
 10
-1.915961
 20
-0.483313
  0
VERTEX
  8
EBENE_1
 62
   146
  6
CONTINUOUS
 10
-1.926324
 20
-0.526948
  0
VERTEX
  8
EBENE_1
 62
   146
  6
CONTINUOUS
 10
-1.939147
 20
-0.579513
  0
VERTEX
  8
EBENE_1
 62
   146
  6
CONTINUOUS
 10
-1.954085
 20
-0.639718
  0
VERTEX
  8
EBENE_1
 62
   146
  6
CONTINUOUS
 10
-1.970793
 20
-0.706274
  0
VERTEX
  8
EBENE_1
 62
   146
  6
CONTINUOUS
 10
-1.988926
 20
-0.777889
  0
VERTEX
  8
EBENE_1
 62
   146
  6
CONTINUOUS
 10
-2.008138
 20
-0.853272
  0
VERTEX
  8
EBENE_1
 62
   146
  6
CONTINUOUS
 10
-2.028085
 20
-0.931134
  0
VERTEX
  8
EBENE_1
 62
   146
  6
CONTINUOUS
 10
-2.048420
 20
-1.010183
  0
VERTEX
  8
EBENE_1
 62
   146
  6
CONTINUOUS
 10
-2.068798
 20
-1.089130
  0
VERTEX
  8
EBENE_1
 62
   146
  6
CONTINUOUS
 10
-2.088875
 20
-1.166682
  0
VERTEX
  8
EBENE_1
 62
   146
  6
CONTINUOUS
 10
-2.108304
 20
-1.241551
  0
VERTEX
  8
EBENE_1
 62
   146
  6
CONTINUOUS
 10
-2.126741
 20
-1.312444
  0
VERTEX
  8
EBENE_1
 62
   146
  6
CONTINUOUS
 10
-2.143840
 20
-1.378073
  0
VERTEX
  8
EBENE_1
 62
   146
  6
CONTINUOUS
 10
-2.159255
 20
-1.437145
  0
VERTEX
  8
EBENE_1
 62
   146
  6
CONTINUOUS
 10
-2.172643
 20
-1.488372
  0
VERTEX
  8
EBENE_1
 62
   146
  6
CONTINUOUS
 10
-2.183656
 20
-1.530461
  0
VERTEX
  8
EBENE_1
 62
   146
  6
CONTINUOUS
 10
-2.191950
 20
-1.562122
  0
VERTEX
  8
EBENE_1
 62
   146
  6
CONTINUOUS
 10
-2.197180
 20
-1.582065
  0
VERTEX
  8
EBENE_1
 62
   146
  6
CONTINUOUS
 10
-2.199000
 20
-1.589000
  0
VERTEX
  8
EBENE_1
 62
   146
  6
CONTINUOUS
 10
-2.210259
 20
-1.614556
  0
VERTEX
  8
EBENE_1
 62
   146
  6
CONTINUOUS
 10
-2.253074
 20
-1.662778
  0
VERTEX
  8
EBENE_1
 62
   146
  6
CONTINUOUS
 10
-2.341000
 20
-1.691000
  0
VERTEX
  8
EBENE_1
 62
   146
  6
CONTINUOUS
 10
-2.401749
 20
-1.692353
  0
VERTEX
  8
EBENE_1
 62
   146
  6
CONTINUOUS
 10
-2.479117
 20
-1.692394
  0
VERTEX
  8
EBENE_1
 62
   146
  6
CONTINUOUS
 10
-2.563638
 20
-1.691525
  0
VERTEX
  8
EBENE_1
 62
   146
  6
CONTINUOUS
 10
-2.645851
 20
-1.690149
  0
VERTEX
  8
EBENE_1
 62
   146
  6
CONTINUOUS
 10
-2.716292
 20
-1.688668
  0
VERTEX
  8
EBENE_1
 62
   146
  6
CONTINUOUS
 10
-2.765496
 20
-1.687484
  0
VERTEX
  8
EBENE_1
 62
   146
  6
CONTINUOUS
 10
-2.784000
 20
-1.687000
  0
VERTEX
  8
EBENE_1
 62
   146
  6
CONTINUOUS
 10
-2.802000
 20
-1.675630
  0
VERTEX
  8
EBENE_1
 62
   146
  6
CONTINUOUS
 10
-2.829333
 20
-1.632037
  0
VERTEX
  8
EBENE_1
 62
   146
  6
CONTINUOUS
 10
-2.826000
 20
-1.542000
  0
VERTEX
  8
EBENE_1
 62
   146
  6
CONTINUOUS
 10
-2.820027
 20
-1.519116
  0
VERTEX
  8
EBENE_1
 62
   146
  6
CONTINUOUS
 10
-2.811181
 20
-1.485020
  0
VERTEX
  8
EBENE_1
 62
   146
  6
CONTINUOUS
 10
-2.799787
 20
-1.440977
  0
VERTEX
  8
EBENE_1
 62
   146
  6
CONTINUOUS
 10
-2.786170
 20
-1.388252
  0
VERTEX
  8
EBENE_1
 62
   146
  6
CONTINUOUS
 10
-2.770653
 20
-1.328109
  0
VERTEX
  8
EBENE_1
 62
   146
  6
CONTINUOUS
 10
-2.753563
 20
-1.261813
  0
VERTEX
  8
EBENE_1
 62
   146
  6
CONTINUOUS
 10
-2.735222
 20
-1.190630
  0
VERTEX
  8
EBENE_1
 62
   146
  6
CONTINUOUS
 10
-2.715957
 20
-1.115822
  0
VERTEX
  8
EBENE_1
 62
   146
  6
CONTINUOUS
 10
-2.696090
 20
-1.038656
  0
VERTEX
  8
EBENE_1
 62
   146
  6
CONTINUOUS
 10
-2.675948
 20
-0.960395
  0
VERTEX
  8
EBENE_1
 62
   146
  6
CONTINUOUS
 10
-2.655855
 20
-0.882305
  0
VERTEX
  8
EBENE_1
 62
   146
  6
CONTINUOUS
 10
-2.636134
 20
-0.805650
  0
VERTEX
  8
EBENE_1
 62
   146
  6
CONTINUOUS
 10
-2.617111
 20
-0.731695
  0
VERTEX
  8
EBENE_1
 62
   146
  6
CONTINUOUS
 10
-2.599111
 20
-0.661704
  0
VERTEX
  8
EBENE_1
 62
   146
  6
CONTINUOUS
 10
-2.582458
 20
-0.596942
  0
VERTEX
  8
EBENE_1
 62
   146
  6
CONTINUOUS
 10
-2.567476
 20
-0.538673
  0
VERTEX
  8
EBENE_1
 62
   146
  6
CONTINUOUS
 10
-2.554490
 20
-0.488163
  0
VERTEX
  8
EBENE_1
 62
   146
  6
CONTINUOUS
 10
-2.543825
 20
-0.446676
  0
VERTEX
  8
EBENE_1
 62
   146
  6
CONTINUOUS
 10
-2.535805
 20
-0.415477
  0
VERTEX
  8
EBENE_1
 62
   146
  6
CONTINUOUS
 10
-2.530755
 20
-0.395830
  0
VERTEX
  8
EBENE_1
 62
   146
  6
CONTINUOUS
 10
-2.529000
 20
-0.389000
  0
VERTEX
  8
EBENE_1
 62
   146
  6
CONTINUOUS
 10
-2.518444
 20
-0.371444
  0
VERTEX
  8
EBENE_1
 62
   146
  6
CONTINUOUS
 10
-2.483222
 20
-0.337889
  0
VERTEX
  8
EBENE_1
 62
   146
  6
CONTINUOUS
 10
-2.418000
 20
-0.317000
  0
VERTEX
  8
EBENE_1
 62
   146
  6
CONTINUOUS
 10
-2.011000
 20
-0.312000
  0
VERTEX
  8
EBENE_1
 62
   146
  6
CONTINUOUS
 10
-1.979037
 20
-0.317407
  0
VERTEX
  8
EBENE_1
 62
   146
  6
CONTINUOUS
 10
-1.923296
 20
-0.348593
  0
SEQEND
  8
0
  0
POLYLINE
  8
EBENE_1
 62
   146
  6
CONTINUOUS
 66
     1
 40
0.003000
 41
0.003000
 70
     1
  0
VERTEX
  8
EBENE_1
 62
   146
  6
CONTINUOUS
 10
0.633000
 20
-0.119000
  0
VERTEX
  8
EBENE_1
 62
   146
  6
CONTINUOUS
 10
-0.726000
 20
-0.119000
  0
VERTEX
  8
EBENE_1
 62
   146
  6
CONTINUOUS
 10
-0.713667
 20
-0.183593
  0
VERTEX
  8
EBENE_1
 62
   146
  6
CONTINUOUS
 10
-0.710667
 20
-0.234407
  0
VERTEX
  8
EBENE_1
 62
   146
  6
CONTINUOUS
 10
-0.711000
 20
-0.255000
  0
VERTEX
  8
EBENE_1
 62
   146
  6
CONTINUOUS
 10
-0.712458
 20
-0.260811
  0
VERTEX
  8
EBENE_1
 62
   146
  6
CONTINUOUS
 10
-0.716685
 20
-0.277645
  0
VERTEX
  8
EBENE_1
 62
   146
  6
CONTINUOUS
 10
-0.723458
 20
-0.304605
  0
VERTEX
  8
EBENE_1
 62
   146
  6
CONTINUOUS
 10
-0.732555
 20
-0.340795
  0
VERTEX
  8
EBENE_1
 62
   146
  6
CONTINUOUS
 10
-0.743752
 20
-0.385318
  0
VERTEX
  8
EBENE_1
 62
   146
  6
CONTINUOUS
 10
-0.756827
 20
-0.437278
  0
VERTEX
  8
EBENE_1
 62
   146
  6
CONTINUOUS
 10
-0.771559
 20
-0.495776
  0
VERTEX
  8
EBENE_1
 62
   146
  6
CONTINUOUS
 10
-0.787723
 20
-0.559918
  0
VERTEX
  8
EBENE_1
 62
   146
  6
CONTINUOUS
 10
-0.805098
 20
-0.628805
  0
VERTEX
  8
EBENE_1
 62
   146
  6
CONTINUOUS
 10
-0.823460
 20
-0.701541
  0
VERTEX
  8
EBENE_1
 62
   146
  6
CONTINUOUS
 10
-0.842588
 20
-0.777229
  0
VERTEX
  8
EBENE_1
 62
   146
  6
CONTINUOUS
 10
-0.862259
 20
-0.854973
  0
VERTEX
  8
EBENE_1
 62
   146
  6
CONTINUOUS
 10
-0.882250
 20
-0.933875
  0
VERTEX
  8
EBENE_1
 62
   146
  6
CONTINUOUS
 10
-0.902339
 20
-1.013039
  0
VERTEX
  8
EBENE_1
 62
   146
  6
CONTINUOUS
 10
-0.922302
 20
-1.091568
  0
VERTEX
  8
EBENE_1
 62
   146
  6
CONTINUOUS
 10
-0.941919
 20
-1.168566
  0
VERTEX
  8
EBENE_1
 62
   146
  6
CONTINUOUS
 10
-0.960965
 20
-1.243135
  0
VERTEX
  8
EBENE_1
 62
   146
  6
CONTINUOUS
 10
-0.979218
 20
-1.314378
  0
VERTEX
  8
EBENE_1
 62
   146
  6
CONTINUOUS
 10
-0.996456
 20
-1.381400
  0
VERTEX
  8
EBENE_1
 62
   146
  6
CONTINUOUS
 10
-1.012457
 20
-1.443302
  0
VERTEX
  8
EBENE_1
 62
   146
  6
CONTINUOUS
 10
-1.026996
 20
-1.499189
  0
VERTEX
  8
EBENE_1
 62
   146
  6
CONTINUOUS
 10
-1.039853
 20
-1.548163
  0
VERTEX
  8
EBENE_1
 62
   146
  6
CONTINUOUS
 10
-1.050805
 20
-1.589328
  0
VERTEX
  8
EBENE_1
 62
   146
  6
CONTINUOUS
 10
-1.059628
 20
-1.621787
  0
VERTEX
  8
EBENE_1
 62
   146
  6
CONTINUOUS
 10
-1.066101
 20
-1.644644
  0
VERTEX
  8
EBENE_1
 62
   146
  6
CONTINUOUS
 10
-1.070000
 20
-1.657000
  0
VERTEX
  8
EBENE_1
 62
   146
  6
CONTINUOUS
 10
-1.070000
 20
-1.657000
  0
VERTEX
  8
EBENE_1
 62
   146
  6
CONTINUOUS
 10
-1.100074
 20
-1.727000
  0
VERTEX
  8
EBENE_1
 62
   146
  6
CONTINUOUS
 10
-1.126593
 20
-1.776333
  0
VERTEX
  8
EBENE_1
 62
   146
  6
CONTINUOUS
 10
-1.138000
 20
-1.795000
  0
VERTEX
  8
EBENE_1
 62
   146
  6
CONTINUOUS
 10
-1.129437
 20
-1.794983
  0
VERTEX
  8
EBENE_1
 62
   146
  6
CONTINUOUS
 10
-1.105144
 20
-1.794936
  0
VERTEX
  8
EBENE_1
 62
   146
  6
CONTINUOUS
 10
-1.067213
 20
-1.794865
  0
VERTEX
  8
EBENE_1
 62
   146
  6
CONTINUOUS
 10
-1.017734
 20
-1.794774
  0
VERTEX
  8
EBENE_1
 62
   146
  6
CONTINUOUS
 10
-0.958801
 20
-1.794670
  0
VERTEX
  8
EBENE_1
 62
   146
  6
CONTINUOUS
 10
-0.892505
 20
-1.794558
  0
VERTEX
  8
EBENE_1
 62
   146
  6
CONTINUOUS
 10
-0.820939
 20
-1.794442
  0
VERTEX
  8
EBENE_1
 62
   146
  6
CONTINUOUS
 10
-0.746193
 20
-1.794330
  0
VERTEX
  8
EBENE_1
 62
   146
  6
CONTINUOUS
 10
-0.670360
 20
-1.794226
  0
VERTEX
  8
EBENE_1
 62
   146
  6
CONTINUOUS
 10
-0.595533
 20
-1.794135
  0
VERTEX
  8
EBENE_1
 62
   146
  6
CONTINUOUS
 10
-0.523802
 20
-1.794064
  0
VERTEX
  8
EBENE_1
 62
   146
  6
CONTINUOUS
 10
-0.457261
 20
-1.794017
  0
VERTEX
  8
EBENE_1
 62
   146
  6
CONTINUOUS
 10
-0.398000
 20
-1.794000
  0
VERTEX
  8
EBENE_1
 62
   146
  6
CONTINUOUS
 10
-0.412370
 20
-1.726000
  0
VERTEX
  8
EBENE_1
 62
   146
  6
CONTINUOUS
 10
-0.414963
 20
-1.664667
  0
VERTEX
  8
EBENE_1
 62
   146
  6
CONTINUOUS
 10
-0.414000
 20
-1.638000
  0
VERTEX
  8
EBENE_1
 62
   146
  6
CONTINUOUS
 10
-0.273000
 20
-1.079000
  0
VERTEX
  8
EBENE_1
 62
   146
  6
CONTINUOUS
 10
-0.109000
 20
-1.083000
  0
VERTEX
  8
EBENE_1
 62
   146
  6
CONTINUOUS
 10
0.032000
 20
-1.802000
  0
VERTEX
  8
EBENE_1
 62
   146
  6
CONTINUOUS
 10
0.043063
 20
-1.801998
  0
VERTEX
  8
EBENE_1
 62
   146
  6
CONTINUOUS
 10
0.074005
 20
-1.801981
  0
VERTEX
  8
EBENE_1
 62
   146
  6
CONTINUOUS
 10
0.121453
 20
-1.801938
  0
VERTEX
  8
EBENE_1
 62
   146
  6
CONTINUOUS
 10
0.182037
 20
-1.801852
  0
VERTEX
  8
EBENE_1
 62
   146
  6
CONTINUOUS
 10
0.252385
 20
-1.801711
  0
VERTEX
  8
EBENE_1
 62
   146
  6
CONTINUOUS
 10
0.329125
 20
-1.801500
  0
VERTEX
  8
EBENE_1
 62
   146
  6
CONTINUOUS
 10
0.408886
 20
-1.801206
  0
VERTEX
  8
EBENE_1
 62
   146
  6
CONTINUOUS
 10
0.488296
 20
-1.800815
  0
VERTEX
  8
EBENE_1
 62
   146
  6
CONTINUOUS
 10
0.563984
 20
-1.800313
  0
VERTEX
  8
EBENE_1
 62
   146
  6
CONTINUOUS
 10
0.632579
 20
-1.799685
  0
VERTEX
  8
EBENE_1
 62
   146
  6
CONTINUOUS
 10
0.690708
 20
-1.798919
  0
VERTEX
  8
EBENE_1
 62
   146
  6
CONTINUOUS
 10
0.735000
 20
-1.798000
  0
VERTEX
  8
EBENE_1
 62
   146
  6
CONTINUOUS
 10
0.690037
 20
-1.751222
  0
VERTEX
  8
EBENE_1
 62
   146
  6
CONTINUOUS
 10
0.659963
 20
-1.688444
  0
VERTEX
  8
EBENE_1
 62
   146
  6
CONTINUOUS
 10
0.649000
 20
-1.657000
  0
VERTEX
  8
EBENE_1
 62
   146
  6
CONTINUOUS
 10
0.528000
 20
-1.079000
  0
VERTEX
  8
EBENE_1
 62
   146
  6
CONTINUOUS
 10
0.541296
 20
-1.080630
  0
VERTEX
  8
EBENE_1
 62
   146
  6
CONTINUOUS
 10
0.577037
 20
-1.081370
  0
VERTEX
  8
EBENE_1
 62
   146
  6
CONTINUOUS
 10
0.629000
 20
-1.075000
  0
VERTEX
  8
EBENE_1
 62
   146
  6
CONTINUOUS
 10
0.725088
 20
-1.060120
  0
VERTEX
  8
EBENE_1
 62
   146
  6
CONTINUOUS
 10
0.787624
 20
-1.027240
  0
VERTEX
  8
EBENE_1
 62
   146
  6
CONTINUOUS
 10
0.823616
 20
-0.988600
  0
VERTEX
  8
EBENE_1
 62
   146
  6
CONTINUOUS
 10
0.840072
 20
-0.956440
  0
VERTEX
  8
EBENE_1
 62
   146
  6
CONTINUOUS
 10
0.844000
 20
-0.943000
  0
VERTEX
  8
EBENE_1
 62
   146
  6
CONTINUOUS
 10
0.846745
 20
-0.934303
  0
VERTEX
  8
EBENE_1
 62
   146
  6
CONTINUOUS
 10
0.854403
 20
-0.909277
  0
VERTEX
  8
EBENE_1
 62
   146
  6
CONTINUOUS
 10
0.866111
 20
-0.869519
  0
VERTEX
  8
EBENE_1
 62
   146
  6
CONTINUOUS
 10
0.881004
 20
-0.816624
  0
VERTEX
  8
EBENE_1
 62
   146
  6
CONTINUOUS
 10
0.898218
 20
-0.752191
  0
VERTEX
  8
EBENE_1
 62
   146
  6
CONTINUOUS
 10
0.916889
 20
-0.677815
  0
VERTEX
  8
EBENE_1
 62
   146
  6
CONTINUOUS
 10
0.936152
 20
-0.595093
  0
VERTEX
  8
EBENE_1
 62
   146
  6
CONTINUOUS
 10
0.955144
 20
-0.505623
  0
VERTEX
  8
EBENE_1
 62
   146
  6
CONTINUOUS
 10
0.973000
 20
-0.411000
  0
VERTEX
  8
EBENE_1
 62
   146
  6
CONTINUOUS
 10
0.973000
 20
-0.411000
  0
VERTEX
  8
EBENE_1
 62
   146
  6
CONTINUOUS
 10
0.949143
 20
-0.327008
  0
VERTEX
  8
EBENE_1
 62
   146
  6
CONTINUOUS
 10
0.914984
 20
-0.260824
  0
VERTEX
  8
EBENE_1
 62
   146
  6
CONTINUOUS
 10
0.873541
 20
-0.210336
  0
VERTEX
  8
EBENE_1
 62
   146
  6
CONTINUOUS
 10
0.827832
 20
-0.173432
  0
VERTEX
  8
EBENE_1
 62
   146
  6
CONTINUOUS
 10
0.780875
 20
-0.148000
  0
VERTEX
  8
EBENE_1
 62
   146
  6
CONTINUOUS
 10
0.735688
 20
-0.131928
  0
VERTEX
  8
EBENE_1
 62
   146
  6
CONTINUOUS
 10
0.695289
 20
-0.123104
  0
VERTEX
  8
EBENE_1
 62
   146
  6
CONTINUOUS
 10
0.662696
 20
-0.119416
  0
VERTEX
  8
EBENE_1
 62
   146
  6
CONTINUOUS
 10
0.640927
 20
-0.118752
  0
SEQEND
  8
0
  0
POLYLINE
  8
EBENE_1
 62
   146
  6
CONTINUOUS
 66
     1
 40
0.003000
 41
0.003000
 70
     1
  0
VERTEX
  8
EBENE_1
 62
   146
  6
CONTINUOUS
 10
0.321000
 20
-0.474000
  0
VERTEX
  8
EBENE_1
 62
   146
  6
CONTINUOUS
 10
0.312741
 20
-0.522370
  0
VERTEX
  8
EBENE_1
 62
   146
  6
CONTINUOUS
 10
0.292259
 20
-0.626296
  0
VERTEX
  8
EBENE_1
 62
   146
  6
CONTINUOUS
 10
0.266000
 20
-0.724000
  0
VERTEX
  8
EBENE_1
 62
   146
  6
CONTINUOUS
 10
0.226778
 20
-0.774000
  0
VERTEX
  8
EBENE_1
 62
   146
  6
CONTINUOUS
 10
0.182222
 20
-0.789333
  0
VERTEX
  8
EBENE_1
 62
   146
  6
CONTINUOUS
 10
0.161000
 20
-0.790000
  0
VERTEX
  8
EBENE_1
 62
   146
  6
CONTINUOUS
 10
-0.195000
 20
-0.783000
  0
VERTEX
  8
EBENE_1
 62
   146
  6
CONTINUOUS
 10
-0.093000
 20
-0.392000
  0
VERTEX
  8
EBENE_1
 62
   146
  6
CONTINUOUS
 10
-0.067024
 20
-0.392416
  0
VERTEX
  8
EBENE_1
 62
   146
  6
CONTINUOUS
 10
-0.001352
 20
-0.393408
  0
VERTEX
  8
EBENE_1
 62
   146
  6
CONTINUOUS
 10
0.085632
 20
-0.394592
  0
VERTEX
  8
EBENE_1
 62
   146
  6
CONTINUOUS
 10
0.175544
 20
-0.395584
  0
VERTEX
  8
EBENE_1
 62
   146
  6
CONTINUOUS
 10
0.250000
 20
-0.396000
  0
VERTEX
  8
EBENE_1
 62
   146
  6
CONTINUOUS
 10
0.313741
 20
-0.416222
  0
VERTEX
  8
EBENE_1
 62
   146
  6
CONTINUOUS
 10
0.325259
 20
-0.453778
  0
SEQEND
  8
0
  0
POLYLINE
  8
EBENE_1
 62
   146
  6
CONTINUOUS
 66
     1
 40
0.003000
 41
0.003000
 70
     1
  0
VERTEX
  8
EBENE_1
 62
   146
  6
CONTINUOUS
 10
0.868000
 20
-1.806000
  0
VERTEX
  8
EBENE_1
 62
   146
  6
CONTINUOUS
 10
1.617000
 20
-1.809000
  0
VERTEX
  8
EBENE_1
 62
   146
  6
CONTINUOUS
 10
1.605852
 20
-1.805259
  0
VERTEX
  8
EBENE_1
 62
   146
  6
CONTINUOUS
 10
1.586481
 20
-1.775074
  0
VERTEX
  8
EBENE_1
 62
   146
  6
CONTINUOUS
 10
1.580000
 20
-1.690000
  0
VERTEX
  8
EBENE_1
 62
   146
  6
CONTINUOUS
 10
1.581490
 20
-1.674848
  0
VERTEX
  8
EBENE_1
 62
   146
  6
CONTINUOUS
 10
1.584621
 20
-1.652645
  0
VERTEX
  8
EBENE_1
 62
   146
  6
CONTINUOUS
 10
1.589310
 20
-1.623880
  0
VERTEX
  8
EBENE_1
 62
   146
  6
CONTINUOUS
 10
1.595475
 20
-1.589041
  0
VERTEX
  8
EBENE_1
 62
   146
  6
CONTINUOUS
 10
1.603036
 20
-1.548614
  0
VERTEX
  8
EBENE_1
 62
   146
  6
CONTINUOUS
 10
1.611910
 20
-1.503089
  0
VERTEX
  8
EBENE_1
 62
   146
  6
CONTINUOUS
 10
1.622016
 20
-1.452953
  0
VERTEX
  8
EBENE_1
 62
   146
  6
CONTINUOUS
 10
1.633271
 20
-1.398694
  0
VERTEX
  8
EBENE_1
 62
   146
  6
CONTINUOUS
 10
1.645595
 20
-1.340799
  0
VERTEX
  8
EBENE_1
 62
   146
  6
CONTINUOUS
 10
1.658905
 20
-1.279758
  0
VERTEX
  8
EBENE_1
 62
   146
  6
CONTINUOUS
 10
1.673120
 20
-1.216056
  0
VERTEX
  8
EBENE_1
 62
   146
  6
CONTINUOUS
 10
1.688157
 20
-1.150184
  0
VERTEX
  8
EBENE_1
 62
   146
  6
CONTINUOUS
 10
1.703936
 20
-1.082627
  0
VERTEX
  8
EBENE_1
 62
   146
  6
CONTINUOUS
 10
1.720375
 20
-1.013875
  0
VERTEX
  8
EBENE_1
 62
   146
  6
CONTINUOUS
 10
1.737391
 20
-0.944415
  0
VERTEX
  8
EBENE_1
 62
   146
  6
CONTINUOUS
 10
1.754904
 20
-0.874735
  0
VERTEX
  8
EBENE_1
 62
   146
  6
CONTINUOUS
 10
1.772831
 20
-0.805322
  0
VERTEX
  8
EBENE_1
 62
   146
  6
CONTINUOUS
 10
1.791090
 20
-0.736666
  0
VERTEX
  8
EBENE_1
 62
   146
  6
CONTINUOUS
 10
1.809600
 20
-0.669253
  0
VERTEX
  8
EBENE_1
 62
   146
  6
CONTINUOUS
 10
1.828280
 20
-0.603571
  0
VERTEX
  8
EBENE_1
 62
   146
  6
CONTINUOUS
 10
1.847047
 20
-0.540109
  0
VERTEX
  8
EBENE_1
 62
   146
  6
CONTINUOUS
 10
1.865820
 20
-0.479355
  0
VERTEX
  8
EBENE_1
 62
   146
  6
CONTINUOUS
 10
1.884516
 20
-0.421795
  0
VERTEX
  8
EBENE_1
 62
   146
  6
CONTINUOUS
 10
1.903055
 20
-0.367918
  0
VERTEX
  8
EBENE_1
 62
   146
  6
CONTINUOUS
 10
1.921355
 20
-0.318213
  0
VERTEX
  8
EBENE_1
 62
   146
  6
CONTINUOUS
 10
1.939333
 20
-0.273166
  0
VERTEX
  8
EBENE_1
 62
   146
  6
CONTINUOUS
 10
1.956909
 20
-0.233266
  0
VERTEX
  8
EBENE_1
 62
   146
  6
CONTINUOUS
 10
1.974000
 20
-0.199000
  0
VERTEX
  8
EBENE_1
 62
   146
  6
CONTINUOUS
 10
1.974000
 20
-0.199000
  0
VERTEX
  8
EBENE_1
 62
   146
  6
CONTINUOUS
 10
2.006963
 20
-0.162815
  0
VERTEX
  8
EBENE_1
 62
   146
  6
CONTINUOUS
 10
2.040370
 20
-0.138185
  0
VERTEX
  8
EBENE_1
 62
   146
  6
CONTINUOUS
 10
2.066000
 20
-0.128000
  0
VERTEX
  8
EBENE_1
 62
   146
  6
CONTINUOUS
 10
2.034206
 20
-0.127410
  0
VERTEX
  8
EBENE_1
 62
   146
  6
CONTINUOUS
 10
1.985401
 20
-0.127009
  0
VERTEX
  8
EBENE_1
 62
   146
  6
CONTINUOUS
 10
1.922987
 20
-0.126771
  0
VERTEX
  8
EBENE_1
 62
   146
  6
CONTINUOUS
 10
1.850368
 20
-0.126673
  0
VERTEX
  8
EBENE_1
 62
   146
  6
CONTINUOUS
 10
1.770945
 20
-0.126689
  0
VERTEX
  8
EBENE_1
 62
   146
  6
CONTINUOUS
 10
1.688123
 20
-0.126796
  0
VERTEX
  8
EBENE_1
 62
   146
  6
CONTINUOUS
 10
1.605303
 20
-0.126968
  0
VERTEX
  8
EBENE_1
 62
   146
  6
CONTINUOUS
 10
1.525889
 20
-0.127181
  0
VERTEX
  8
EBENE_1
 62
   146
  6
CONTINUOUS
 10
1.453283
 20
-0.127410
  0
VERTEX
  8
EBENE_1
 62
   146
  6
CONTINUOUS
 10
1.390888
 20
-0.127631
  0
VERTEX
  8
EBENE_1
 62
   146
  6
CONTINUOUS
 10
1.342108
 20
-0.127820
  0
VERTEX
  8
EBENE_1
 62
   146
  6
CONTINUOUS
 10
1.310344
 20
-0.127951
  0
VERTEX
  8
EBENE_1
 62
   146
  6
CONTINUOUS
 10
1.299000
 20
-0.128000
  0
VERTEX
  8
EBENE_1
 62
   146
  6
CONTINUOUS
 10
1.313407
 20
-0.135444
  0
VERTEX
  8
EBENE_1
 62
   146
  6
CONTINUOUS
 10
1.338259
 20
-0.156889
  0
VERTEX
  8
EBENE_1
 62
   146
  6
CONTINUOUS
 10
1.346000
 20
-0.191000
  0
VERTEX
  8
EBENE_1
 62
   146
  6
CONTINUOUS
 10
1.343985
 20
-0.199181
  0
VERTEX
  8
EBENE_1
 62
   146
  6
CONTINUOUS
 10
1.339896
 20
-0.215839
  0
VERTEX
  8
EBENE_1
 62
   146
  6
CONTINUOUS
 10
1.333858
 20
-0.240400
  0
VERTEX
  8
EBENE_1
 62
   146
  6
CONTINUOUS
 10
1.325994
 20
-0.272289
  0
VERTEX
  8
EBENE_1
 62
   146
  6
CONTINUOUS
 10
1.316429
 20
-0.310931
  0
VERTEX
  8
EBENE_1
 62
   146
  6
CONTINUOUS
 10
1.305287
 20
-0.355751
  0
VERTEX
  8
EBENE_1
 62
   146
  6
CONTINUOUS
 10
1.292691
 20
-0.406174
  0
VERTEX
  8
EBENE_1
 62
   146
  6
CONTINUOUS
 10
1.278766
 20
-0.461625
  0
VERTEX
  8
EBENE_1
 62
   146
  6
CONTINUOUS
 10
1.263635
 20
-0.521529
  0
VERTEX
  8
EBENE_1
 62
   146
  6
CONTINUOUS
 10
1.247422
 20
-0.585312
  0
VERTEX
  8
EBENE_1
 62
   146
  6
CONTINUOUS
 10
1.230252
 20
-0.652397
  0
VERTEX
  8
EBENE_1
 62
   146
  6
CONTINUOUS
 10
1.212248
 20
-0.722211
  0
VERTEX
  8
EBENE_1
 62
   146
  6
CONTINUOUS
 10
1.193534
 20
-0.794178
  0
VERTEX
  8
EBENE_1
 62
   146
  6
CONTINUOUS
 10
1.174235
 20
-0.867724
  0
VERTEX
  8
EBENE_1
 62
   146
  6
CONTINUOUS
 10
1.154474
 20
-0.942273
  0
VERTEX
  8
EBENE_1
 62
   146
  6
CONTINUOUS
 10
1.134375
 20
-1.017250
  0
VERTEX
  8
EBENE_1
 62
   146
  6
CONTINUOUS
 10
1.114062
 20
-1.092081
  0
VERTEX
  8
EBENE_1
 62
   146
  6
CONTINUOUS
 10
1.093659
 20
-1.166190
  0
VERTEX
  8
EBENE_1
 62
   146
  6
CONTINUOUS
 10
1.073291
 20
-1.239004
  0
VERTEX
  8
EBENE_1
 62
   146
  6
CONTINUOUS
 10
1.053080
 20
-1.309945
  0
VERTEX
  8
EBENE_1
 62
   146
  6
CONTINUOUS
 10
1.033151
 20
-1.378441
  0
VERTEX
  8
EBENE_1
 62
   146
  6
CONTINUOUS
 10
1.013629
 20
-1.443915
  0
VERTEX
  8
EBENE_1
 62
   146
  6
CONTINUOUS
 10
0.994636
 20
-1.505793
  0
VERTEX
  8
EBENE_1
 62
   146
  6
CONTINUOUS
 10
0.976297
 20
-1.563500
  0
VERTEX
  8
EBENE_1
 62
   146
  6
CONTINUOUS
 10
0.958736
 20
-1.616461
  0
VERTEX
  8
EBENE_1
 62
   146
  6
CONTINUOUS
 10
0.942076
 20
-1.664101
  0
VERTEX
  8
EBENE_1
 62
   146
  6
CONTINUOUS
 10
0.926443
 20
-1.705844
  0
VERTEX
  8
EBENE_1
 62
   146
  6
CONTINUOUS
 10
0.911959
 20
-1.741117
  0
VERTEX
  8
EBENE_1
 62
   146
  6
CONTINUOUS
 10
0.898749
 20
-1.769344
  0
VERTEX
  8
EBENE_1
 62
   146
  6
CONTINUOUS
 10
0.886936
 20
-1.789950
  0
VERTEX
  8
EBENE_1
 62
   146
  6
CONTINUOUS
 10
0.876645
 20
-1.802360
  0
SEQEND
  8
0
  0
POLYLINE
  8
EBENE_1
 62
   146
  6
CONTINUOUS
 66
     1
 40
0.003000
 41
0.003000
 70
     1
  0
VERTEX
  8
EBENE_1
 62
   146
  6
CONTINUOUS
 10
3.586000
 20
-0.121000
  0
VERTEX
  8
EBENE_1
 62
   146
  6
CONTINUOUS
 10
3.580223
 20
-0.121039
  0
VERTEX
  8
EBENE_1
 62
   146
  6
CONTINUOUS
 10
3.563491
 20
-0.121147
  0
VERTEX
  8
EBENE_1
 62
   146
  6
CONTINUOUS
 10
3.536704
 20
-0.121308
  0
VERTEX
  8
EBENE_1
 62
   146
  6
CONTINUOUS
 10
3.500763
 20
-0.121508
  0
VERTEX
  8
EBENE_1
 62
   146
  6
CONTINUOUS
 10
3.456568
 20
-0.121733
  0
VERTEX
  8
EBENE_1
 62
   146
  6
CONTINUOUS
 10
3.405018
 20
-0.121967
  0
VERTEX
  8
EBENE_1
 62
   146
  6
CONTINUOUS
 10
3.347014
 20
-0.122197
  0
VERTEX
  8
EBENE_1
 62
   146
  6
CONTINUOUS
 10
3.283456
 20
-0.122407
  0
VERTEX
  8
EBENE_1
 62
   146
  6
CONTINUOUS
 10
3.215243
 20
-0.122583
  0
VERTEX
  8
EBENE_1
 62
   146
  6
CONTINUOUS
 10
3.143277
 20
-0.122710
  0
VERTEX
  8
EBENE_1
 62
   146
  6
CONTINUOUS
 10
3.068456
 20
-0.122773
  0
VERTEX
  8
EBENE_1
 62
   146
  6
CONTINUOUS
 10
2.991681
 20
-0.122759
  0
VERTEX
  8
EBENE_1
 62
   146
  6
CONTINUOUS
 10
2.913853
 20
-0.122651
  0
VERTEX
  8
EBENE_1
 62
   146
  6
CONTINUOUS
 10
2.835870
 20
-0.122436
  0
VERTEX
  8
EBENE_1
 62
   146
  6
CONTINUOUS
 10
2.758634
 20
-0.122099
  0
VERTEX
  8
EBENE_1
 62
   146
  6
CONTINUOUS
 10
2.683044
 20
-0.121625
  0
VERTEX
  8
EBENE_1
 62
   146
  6
CONTINUOUS
 10
2.610000
 20
-0.121000
  0
VERTEX
  8
EBENE_1
 62
   146
  6
CONTINUOUS
 10
2.516416
 20
-0.125826
  0
VERTEX
  8
EBENE_1
 62
   146
  6
CONTINUOUS
 10
2.436907
 20
-0.140944
  0
VERTEX
  8
EBENE_1
 62
   146
  6
CONTINUOUS
 10
2.370344
 20
-0.164313
  0
VERTEX
  8
EBENE_1
 62
   146
  6
CONTINUOUS
 10
2.315593
 20
-0.193889
  0
VERTEX
  8
EBENE_1
 62
   146
  6
CONTINUOUS
 10
2.271522
 20
-0.227632
  0
VERTEX
  8
EBENE_1
 62
   146
  6
CONTINUOUS
 10
2.237000
 20
-0.263500
  0
VERTEX
  8
EBENE_1
 62
   146
  6
CONTINUOUS
 10
2.210895
 20
-0.299451
  0
VERTEX
  8
EBENE_1
 62
   146
  6
CONTINUOUS
 10
2.192074
 20
-0.333444
  0
VERTEX
  8
EBENE_1
 62
   146
  6
CONTINUOUS
 10
2.179406
 20
-0.363438
  0
VERTEX
  8
EBENE_1
 62
   146
  6
CONTINUOUS
 10
2.171759
 20
-0.387389
  0
VERTEX
  8
EBENE_1
 62
   146
  6
CONTINUOUS
 10
2.168001
 20
-0.403257
  0
VERTEX
  8
EBENE_1
 62
   146
  6
CONTINUOUS
 10
2.167000
 20
-0.409000
  0
VERTEX
  8
EBENE_1
 62
   146
  6
CONTINUOUS
 10
1.911000
 20
-1.400000
  0
VERTEX
  8
EBENE_1
 62
   146
  6
CONTINUOUS
 10
1.908569
 20
-1.483945
  0
VERTEX
  8
EBENE_1
 62
   146
  6
CONTINUOUS
 10
1.917930
 20
-1.555102
  0
VERTEX
  8
EBENE_1
 62
   146
  6
CONTINUOUS
 10
1.937066
 20
-1.614525
  0
VERTEX
  8
EBENE_1
 62
   146
  6
CONTINUOUS
 10
1.963958
 20
-1.663274
  0
VERTEX
  8
EBENE_1
 62
   146
  6
CONTINUOUS
 10
1.996587
 20
-1.702403
  0
VERTEX
  8
EBENE_1
 62
   146
  6
CONTINUOUS
 10
2.032936
 20
-1.732971
  0
VERTEX
  8
EBENE_1
 62
   146
  6
CONTINUOUS
 10
2.070987
 20
-1.756035
  0
VERTEX
  8
EBENE_1
 62
   146
  6
CONTINUOUS
 10
2.108721
 20
-1.772650
  0
VERTEX
  8
EBENE_1
 62
   146
  6
CONTINUOUS
 10
2.144119
 20
-1.783874
  0
VERTEX
  8
EBENE_1
 62
   146
  6
CONTINUOUS
 10
2.175165
 20
-1.790765
  0
VERTEX
  8
EBENE_1
 62
   146
  6
CONTINUOUS
 10
2.199839
 20
-1.794378
  0
VERTEX
  8
EBENE_1
 62
   146
  6
CONTINUOUS
 10
2.216123
 20
-1.795771
  0
VERTEX
  8
EBENE_1
 62
   146
  6
CONTINUOUS
 10
2.222000
 20
-1.796000
  0
VERTEX
  8
EBENE_1
 62
   146
  6
CONTINUOUS
 10
2.228291
 20
-1.795999
  0
VERTEX
  8
EBENE_1
 62
   146
  6
CONTINUOUS
 10
2.246436
 20
-1.795989
  0
VERTEX
  8
EBENE_1
 62
   146
  6
CONTINUOUS
 10
2.275345
 20
-1.795963
  0
VERTEX
  8
EBENE_1
 62
   146
  6
CONTINUOUS
 10
2.313928
 20
-1.795912
  0
VERTEX
  8
EBENE_1
 62
   146
  6
CONTINUOUS
 10
2.361094
 20
-1.795828
  0
VERTEX
  8
EBENE_1
 62
   146
  6
CONTINUOUS
 10
2.415752
 20
-1.795703
  0
VERTEX
  8
EBENE_1
 62
   146
  6
CONTINUOUS
 10
2.476812
 20
-1.795528
  0
VERTEX
  8
EBENE_1
 62
   146
  6
CONTINUOUS
 10
2.543184
 20
-1.795296
  0
VERTEX
  8
EBENE_1
 62
   146
  6
CONTINUOUS
 10
2.613777
 20
-1.794998
  0
VERTEX
  8
EBENE_1
 62
   146
  6
CONTINUOUS
 10
2.687500
 20
-1.794625
  0
VERTEX
  8
EBENE_1
 62
   146
  6
CONTINUOUS
 10
2.763263
 20
-1.794170
  0
VERTEX
  8
EBENE_1
 62
   146
  6
CONTINUOUS
 10
2.839976
 20
-1.793624
  0
VERTEX
  8
EBENE_1
 62
   146
  6
CONTINUOUS
 10
2.916548
 20
-1.792979
  0
VERTEX
  8
EBENE_1
 62
   146
  6
CONTINUOUS
 10
2.991888
 20
-1.792227
  0
VERTEX
  8
EBENE_1
 62
   146
  6
CONTINUOUS
 10
3.064906
 20
-1.791359
  0
VERTEX
  8
EBENE_1
 62
   146
  6
CONTINUOUS
 10
3.134512
 20
-1.790368
  0
VERTEX
  8
EBENE_1
 62
   146
  6
CONTINUOUS
 10
3.199615
 20
-1.789245
  0
VERTEX
  8
EBENE_1
 62
   146
  6
CONTINUOUS
 10
3.259124
 20
-1.787981
  0
VERTEX
  8
EBENE_1
 62
   146
  6
CONTINUOUS
 10
3.311949
 20
-1.786569
  0
VERTEX
  8
EBENE_1
 62
   146
  6
CONTINUOUS
 10
3.357000
 20
-1.785000
  0
VERTEX
  8
EBENE_1
 62
   146
  6
CONTINUOUS
 10
3.440734
 20
-1.765126
  0
VERTEX
  8
EBENE_1
 62
   146
  6
CONTINUOUS
 10
3.508945
 20
-1.733936
  0
VERTEX
  8
EBENE_1
 62
   146
  6
CONTINUOUS
 10
3.563148
 20
-1.695074
  0
VERTEX
  8
EBENE_1
 62
   146
  6
CONTINUOUS
 10
3.604857
 20
-1.652188
  0
VERTEX
  8
EBENE_1
 62
   146
  6
CONTINUOUS
 10
3.635587
 20
-1.608923
  0
VERTEX
  8
EBENE_1
 62
   146
  6
CONTINUOUS
 10
3.656852
 20
-1.568926
  0
VERTEX
  8
EBENE_1
 62
   146
  6
CONTINUOUS
 10
3.670166
 20
-1.535842
  0
VERTEX
  8
EBENE_1
 62
   146
  6
CONTINUOUS
 10
3.677044
 20
-1.513318
  0
VERTEX
  8
EBENE_1
 62
   146
  6
CONTINUOUS
 10
3.679000
 20
-1.505000
  0
VERTEX
  8
EBENE_1
 62
   146
  6
CONTINUOUS
 10
3.680610
 20
-1.499248
  0
VERTEX
  8
EBENE_1
 62
   146
  6
CONTINUOUS
 10
3.685251
 20
-1.482615
  0
VERTEX
  8
EBENE_1
 62
   146
  6
CONTINUOUS
 10
3.692639
 20
-1.456032
  0
VERTEX
  8
EBENE_1
 62
   146
  6
CONTINUOUS
 10
3.702490
 20
-1.420435
  0
VERTEX
  8
EBENE_1
 62
   146
  6
CONTINUOUS
 10
3.714520
 20
-1.376755
  0
VERTEX
  8
EBENE_1
 62
   146
  6
CONTINUOUS
 10
3.728444
 20
-1.325926
  0
VERTEX
  8
EBENE_1
 62
   146
  6
CONTINUOUS
 10
3.743980
 20
-1.268881
  0
VERTEX
  8
EBENE_1
 62
   146
  6
CONTINUOUS
 10
3.760844
 20
-1.206553
  0
VERTEX
  8
EBENE_1
 62
   146
  6
CONTINUOUS
 10
3.778750
 20
-1.139875
  0
VERTEX
  8
EBENE_1
 62
   146
  6
CONTINUOUS
 10
3.797416
 20
-1.069781
  0
VERTEX
  8
EBENE_1
 62
   146
  6
CONTINUOUS
 10
3.816557
 20
-0.997203
  0
VERTEX
  8
EBENE_1
 62
   146
  6
CONTINUOUS
 10
3.835889
 20
-0.923074
  0
VERTEX
  8
EBENE_1
 62
   146
  6
CONTINUOUS
 10
3.855129
 20
-0.848328
  0
VERTEX
  8
EBENE_1
 62
   146
  6
CONTINUOUS
 10
3.873992
 20
-0.773898
  0
VERTEX
  8
EBENE_1
 62
   146
  6
CONTINUOUS
 10
3.892194
 20
-0.700718
  0
VERTEX
  8
EBENE_1
 62
   146
  6
CONTINUOUS
 10
3.909453
 20
-0.629719
  0
VERTEX
  8
EBENE_1
 62
   146
  6
CONTINUOUS
 10
3.925483
 20
-0.561835
  0
VERTEX
  8
EBENE_1
 62
   146
  6
CONTINUOUS
 10
3.940000
 20
-0.498000
  0
VERTEX
  8
EBENE_1
 62
   146
  6
CONTINUOUS
 10
3.940000
 20
-0.498000
  0
VERTEX
  8
EBENE_1
 62
   146
  6
CONTINUOUS
 10
3.937184
 20
-0.417521
  0
VERTEX
  8
EBENE_1
 62
   146
  6
CONTINUOUS
 10
3.922729
 20
-0.349396
  0
VERTEX
  8
EBENE_1
 62
   146
  6
CONTINUOUS
 10
3.898699
 20
-0.292598
  0
VERTEX
  8
EBENE_1
 62
   146
  6
CONTINUOUS
 10
3.867159
 20
-0.246095
  0
VERTEX
  8
EBENE_1
 62
   146
  6
CONTINUOUS
 10
3.830173
 20
-0.208858
  0
VERTEX
  8
EBENE_1
 62
   146
  6
CONTINUOUS
 10
3.789806
 20
-0.179858
  0
VERTEX
  8
EBENE_1
 62
   146
  6
CONTINUOUS
 10
3.748123
 20
-0.158065
  0
VERTEX
  8
EBENE_1
 62
   146
  6
CONTINUOUS
 10
3.707188
 20
-0.142450
  0
VERTEX
  8
EBENE_1
 62
   146
  6
CONTINUOUS
 10
3.669066
 20
-0.131982
  0
VERTEX
  8
EBENE_1
 62
   146
  6
CONTINUOUS
 10
3.635822
 20
-0.125633
  0
VERTEX
  8
EBENE_1
 62
   146
  6
CONTINUOUS
 10
3.609519
 20
-0.122373
  0
VERTEX
  8
EBENE_1
 62
   146
  6
CONTINUOUS
 10
3.592224
 20
-0.121172
  0
SEQEND
  8
0
  0
POLYLINE
  8
EBENE_1
 62
   146
  6
CONTINUOUS
 66
     1
 40
0.003000
 41
0.003000
 70
     1
  0
VERTEX
  8
EBENE_1
 62
   146
  6
CONTINUOUS
 10
3.302000
 20
-0.490000
  0
VERTEX
  8
EBENE_1
 62
   146
  6
CONTINUOUS
 10
3.297281
 20
-0.513444
  0
VERTEX
  8
EBENE_1
 62
   146
  6
CONTINUOUS
 10
3.288771
 20
-0.550700
  0
VERTEX
  8
EBENE_1
 62
   146
  6
CONTINUOUS
 10
3.276995
 20
-0.599803
  0
VERTEX
  8
EBENE_1
 62
   146
  6
CONTINUOUS
 10
3.262480
 20
-0.658785
  0
VERTEX
  8
EBENE_1
 62
   146
  6
CONTINUOUS
 10
3.245751
 20
-0.725681
  0
VERTEX
  8
EBENE_1
 62
   146
  6
CONTINUOUS
 10
3.227336
 20
-0.798524
  0
VERTEX
  8
EBENE_1
 62
   146
  6
CONTINUOUS
 10
3.207761
 20
-0.875349
  0
VERTEX
  8
EBENE_1
 62
   146
  6
CONTINUOUS
 10
3.187553
 20
-0.954189
  0
VERTEX
  8
EBENE_1
 62
   146
  6
CONTINUOUS
 10
3.167236
 20
-1.033078
  0
VERTEX
  8
EBENE_1
 62
   146
  6
CONTINUOUS
 10
3.147339
 20
-1.110049
  0
VERTEX
  8
EBENE_1
 62
   146
  6
CONTINUOUS
 10
3.128387
 20
-1.183137
  0
VERTEX
  8
EBENE_1
 62
   146
  6
CONTINUOUS
 10
3.110906
 20
-1.250375
  0
VERTEX
  8
EBENE_1
 62
   146
  6
CONTINUOUS
 10
3.095424
 20
-1.309796
  0
VERTEX
  8
EBENE_1
 62
   146
  6
CONTINUOUS
 10
3.082465
 20
-1.359436
  0
VERTEX
  8
EBENE_1
 62
   146
  6
CONTINUOUS
 10
3.072558
 20
-1.397327
  0
VERTEX
  8
EBENE_1
 62
   146
  6
CONTINUOUS
 10
3.066227
 20
-1.421504
  0
VERTEX
  8
EBENE_1
 62
   146
  6
CONTINUOUS
 10
3.064000
 20
-1.430000
  0
VERTEX
  8
EBENE_1
 62
   146
  6
CONTINUOUS
 10
3.054852
 20
-1.450630
  0
VERTEX
  8
EBENE_1
 62
   146
  6
CONTINUOUS
 10
3.020148
 20
-1.489704
  0
VERTEX
  8
EBENE_1
 62
   146
  6
CONTINUOUS
 10
2.949000
 20
-1.513000
  0
VERTEX
  8
EBENE_1
 62
   146
  6
CONTINUOUS
 10
2.875568
 20
-1.514120
  0
VERTEX
  8
EBENE_1
 62
   146
  6
CONTINUOUS
 10
2.782024
 20
-1.513320
  0
VERTEX
  8
EBENE_1
 62
   146
  6
CONTINUOUS
 10
2.689296
 20
-1.511560
  0
VERTEX
  8
EBENE_1
 62
   146
  6
CONTINUOUS
 10
2.618312
 20
-1.509800
  0
VERTEX
  8
EBENE_1
 62
   146
  6
CONTINUOUS
 10
2.590000
 20
-1.509000
  0
VERTEX
  8
EBENE_1
 62
   146
  6
CONTINUOUS
 10
2.575630
 20
-1.500000
  0
VERTEX
  8
EBENE_1
 62
   146
  6
CONTINUOUS
 10
2.553704
 20
-1.465000
  0
VERTEX
  8
EBENE_1
 62
   146
  6
CONTINUOUS
 10
2.556000
 20
-1.392000
  0
VERTEX
  8
EBENE_1
 62
   146
  6
CONTINUOUS
 10
2.562312
 20
-1.367844
  0
VERTEX
  8
EBENE_1
 62
   146
  6
CONTINUOUS
 10
2.572092
 20
-1.330194
  0
VERTEX
  8
EBENE_1
 62
   146
  6
CONTINUOUS
 10
2.584843
 20
-1.280979
  0
VERTEX
  8
EBENE_1
 62
   146
  6
CONTINUOUS
 10
2.600068
 20
-1.222131
  0
VERTEX
  8
EBENE_1
 62
   146
  6
CONTINUOUS
 10
2.617271
 20
-1.155581
  0
VERTEX
  8
EBENE_1
 62
   146
  6
CONTINUOUS
 10
2.635954
 20
-1.083260
  0
VERTEX
  8
EBENE_1
 62
   146
  6
CONTINUOUS
 10
2.655620
 20
-1.007097
  0
VERTEX
  8
EBENE_1
 62
   146
  6
CONTINUOUS
 10
2.675772
 20
-0.929024
  0
VERTEX
  8
EBENE_1
 62
   146
  6
CONTINUOUS
 10
2.695913
 20
-0.850972
  0
VERTEX
  8
EBENE_1
 62
   146
  6
CONTINUOUS
 10
2.715546
 20
-0.774872
  0
VERTEX
  8
EBENE_1
 62
   146
  6
CONTINUOUS
 10
2.734174
 20
-0.702654
  0
VERTEX
  8
EBENE_1
 62
   146
  6
CONTINUOUS
 10
2.751300
 20
-0.636249
  0
VERTEX
  8
EBENE_1
 62
   146
  6
CONTINUOUS
 10
2.766426
 20
-0.577588
  0
VERTEX
  8
EBENE_1
 62
   146
  6
CONTINUOUS
 10
2.779057
 20
-0.528602
  0
VERTEX
  8
EBENE_1
 62
   146
  6
CONTINUOUS
 10
2.788694
 20
-0.491221
  0
VERTEX
  8
EBENE_1
 62
   146
  6
CONTINUOUS
 10
2.794841
 20
-0.467377
  0
VERTEX
  8
EBENE_1
 62
   146
  6
CONTINUOUS
 10
2.797000
 20
-0.459000
  0
VERTEX
  8
EBENE_1
 62
   146
  6
CONTINUOUS
 10
2.805407
 20
-0.444852
  0
VERTEX
  8
EBENE_1
 62
   146
  6
CONTINUOUS
 10
2.833593
 20
-0.417815
  0
VERTEX
  8
EBENE_1
 62
   146
  6
CONTINUOUS
 10
2.886000
 20
-0.401000
  0
VERTEX
  8
EBENE_1
 62
   146
  6
CONTINUOUS
 10
3.216000
 20
-0.396000
  0
VERTEX
  8
EBENE_1
 62
   146
  6
CONTINUOUS
 10
3.241852
 20
-0.400593
  0
VERTEX
  8
EBENE_1
 62
   146
  6
CONTINUOUS
 10
3.286815
 20
-0.426074
  0
SEQEND
  8
0
  0
POLYLINE
  8
EBENE_1
 62
   146
  6
CONTINUOUS
 66
     1
 40
0.003000
 41
0.003000
 70
     1
  0
VERTEX
  8
EBENE_1
 62
   146
  6
CONTINUOUS
 10
4.272000
 20
-0.135000
  0
VERTEX
  8
EBENE_1
 62
   146
  6
CONTINUOUS
 10
5.019000
 20
-0.135000
  0
VERTEX
  8
EBENE_1
 62
   146
  6
CONTINUOUS
 10
5.460000
 20
-1.422000
  0
VERTEX
  8
EBENE_1
 62
   146
  6
CONTINUOUS
 10
5.748000
 20
-0.303000
  0
VERTEX
  8
EBENE_1
 62
   146
  6
CONTINUOUS
 10
5.755259
 20
-0.269667
  0
VERTEX
  8
EBENE_1
 62
   146
  6
CONTINUOUS
 10
5.760741
 20
-0.199000
  0
VERTEX
  8
EBENE_1
 62
   146
  6
CONTINUOUS
 10
5.740000
 20
-0.135000
  0
VERTEX
  8
EBENE_1
 62
   146
  6
CONTINUOUS
 10
5.813806
 20
-0.135000
  0
VERTEX
  8
EBENE_1
 62
   146
  6
CONTINUOUS
 10
5.898111
 20
-0.135000
  0
VERTEX
  8
EBENE_1
 62
   146
  6
CONTINUOUS
 10
5.982250
 20
-0.135000
  0
VERTEX
  8
EBENE_1
 62
   146
  6
CONTINUOUS
 10
6.055556
 20
-0.135000
  0
VERTEX
  8
EBENE_1
 62
   146
  6
CONTINUOUS
 10
6.107361
 20
-0.135000
  0
VERTEX
  8
EBENE_1
 62
   146
  6
CONTINUOUS
 10
6.127000
 20
-0.135000
  0
VERTEX
  8
EBENE_1
 62
   146
  6
CONTINUOUS
 10
6.114963
 20
-0.145407
  0
VERTEX
  8
EBENE_1
 62
   146
  6
CONTINUOUS
 10
6.086704
 20
-0.182259
  0
VERTEX
  8
EBENE_1
 62
   146
  6
CONTINUOUS
 10
6.054000
 20
-0.254000
  0
VERTEX
  8
EBENE_1
 62
   146
  6
CONTINUOUS
 10
6.049568
 20
-0.268306
  0
VERTEX
  8
EBENE_1
 62
   146
  6
CONTINUOUS
 10
6.042805
 20
-0.291722
  0
VERTEX
  8
EBENE_1
 62
   146
  6
CONTINUOUS
 10
6.033892
 20
-0.323549
  0
VERTEX
  8
EBENE_1
 62
   146
  6
CONTINUOUS
 10
6.023011
 20
-0.363089
  0
VERTEX
  8
EBENE_1
 62
   146
  6
CONTINUOUS
 10
6.010341
 20
-0.409642
  0
VERTEX
  8
EBENE_1
 62
   146
  6
CONTINUOUS
 10
5.996065
 20
-0.462509
  0
VERTEX
  8
EBENE_1
 62
   146
  6
CONTINUOUS
 10
5.980362
 20
-0.520990
  0
VERTEX
  8
EBENE_1
 62
   146
  6
CONTINUOUS
 10
5.963413
 20
-0.584388
  0
VERTEX
  8
EBENE_1
 62
   146
  6
CONTINUOUS
 10
5.945400
 20
-0.652001
  0
VERTEX
  8
EBENE_1
 62
   146
  6
CONTINUOUS
 10
5.926503
 20
-0.723132
  0
VERTEX
  8
EBENE_1
 62
   146
  6
CONTINUOUS
 10
5.906902
 20
-0.797081
  0
VERTEX
  8
EBENE_1
 62
   146
  6
CONTINUOUS
 10
5.886780
 20
-0.873149
  0
VERTEX
  8
EBENE_1
 62
   146
  6
CONTINUOUS
 10
5.866316
 20
-0.950636
  0
VERTEX
  8
EBENE_1
 62
   146
  6
CONTINUOUS
 10
5.845691
 20
-1.028844
  0
VERTEX
  8
EBENE_1
 62
   146
  6
CONTINUOUS
 10
5.825087
 20
-1.107074
  0
VERTEX
  8
EBENE_1
 62
   146
  6
CONTINUOUS
 10
5.804683
 20
-1.184625
  0
VERTEX
  8
EBENE_1
 62
   146
  6
CONTINUOUS
 10
5.784661
 20
-1.260800
  0
VERTEX
  8
EBENE_1
 62
   146
  6
CONTINUOUS
 10
5.765202
 20
-1.334899
  0
VERTEX
  8
EBENE_1
 62
   146
  6
CONTINUOUS
 10
5.746487
 20
-1.406222
  0
VERTEX
  8
EBENE_1
 62
   146
  6
CONTINUOUS
 10
5.728695
 20
-1.474071
  0
VERTEX
  8
EBENE_1
 62
   146
  6
CONTINUOUS
 10
5.712009
 20
-1.537747
  0
VERTEX
  8
EBENE_1
 62
   146
  6
CONTINUOUS
 10
5.696608
 20
-1.596549
  0
VERTEX
  8
EBENE_1
 62
   146
  6
CONTINUOUS
 10
5.682675
 20
-1.649780
  0
VERTEX
  8
EBENE_1
 62
   146
  6
CONTINUOUS
 10
5.670389
 20
-1.696740
  0
VERTEX
  8
EBENE_1
 62
   146
  6
CONTINUOUS
 10
5.659931
 20
-1.736729
  0
VERTEX
  8
EBENE_1
 62
   146
  6
CONTINUOUS
 10
5.651482
 20
-1.769049
  0
VERTEX
  8
EBENE_1
 62
   146
  6
CONTINUOUS
 10
5.645224
 20
-1.793000
  0
VERTEX
  8
EBENE_1
 62
   146
  6
CONTINUOUS
 10
5.641336
 20
-1.807883
  0
VERTEX
  8
EBENE_1
 62
   146
  6
CONTINUOUS
 10
5.640000
 20
-1.813000
  0
VERTEX
  8
EBENE_1
 62
   146
  6
CONTINUOUS
 10
4.927000
 20
-1.813000
  0
VERTEX
  8
EBENE_1
 62
   146
  6
CONTINUOUS
 10
4.498000
 20
-0.556000
  0
VERTEX
  8
EBENE_1
 62
   146
  6
CONTINUOUS
 10
4.215000
 20
-1.664000
  0
VERTEX
  8
EBENE_1
 62
   146
  6
CONTINUOUS
 10
4.213926
 20
-1.697519
  0
VERTEX
  8
EBENE_1
 62
   146
  6
CONTINUOUS
 10
4.217074
 20
-1.764148
  0
VERTEX
  8
EBENE_1
 62
   146
  6
CONTINUOUS
 10
4.234000
 20
-1.813000
  0
VERTEX
  8
EBENE_1
 62
   146
  6
CONTINUOUS
 10
4.161236
 20
-1.813000
  0
VERTEX
  8
EBENE_1
 62
   146
  6
CONTINUOUS
 10
4.077222
 20
-1.813000
  0
VERTEX
  8
EBENE_1
 62
   146
  6
CONTINUOUS
 10
3.992875
 20
-1.813000
  0
VERTEX
  8
EBENE_1
 62
   146
  6
CONTINUOUS
 10
3.919111
 20
-1.813000
  0
VERTEX
  8
EBENE_1
 62
   146
  6
CONTINUOUS
 10
3.866847
 20
-1.813000
  0
VERTEX
  8
EBENE_1
 62
   146
  6
CONTINUOUS
 10
3.847000
 20
-1.813000
  0
VERTEX
  8
EBENE_1
 62
   146
  6
CONTINUOUS
 10
3.859926
 20
-1.797222
  0
VERTEX
  8
EBENE_1
 62
   146
  6
CONTINUOUS
 10
3.889074
 20
-1.753444
  0
VERTEX
  8
EBENE_1
 62
   146
  6
CONTINUOUS
 10
3.920000
 20
-1.687000
  0
VERTEX
  8
EBENE_1
 62
   146
  6
CONTINUOUS
 10
3.924348
 20
-1.672689
  0
VERTEX
  8
EBENE_1
 62
   146
  6
CONTINUOUS
 10
3.931243
 20
-1.648113
  0
VERTEX
  8
EBENE_1
 62
   146
  6
CONTINUOUS
 10
3.940463
 20
-1.614158
  0
VERTEX
  8
EBENE_1
 62
   146
  6
CONTINUOUS
 10
3.951787
 20
-1.571706
  0
VERTEX
  8
EBENE_1
 62
   146
  6
CONTINUOUS
 10
3.964993
 20
-1.521641
  0
VERTEX
  8
EBENE_1
 62
   146
  6
CONTINUOUS
 10
3.979858
 20
-1.464847
  0
VERTEX
  8
EBENE_1
 62
   146
  6
CONTINUOUS
 10
3.996161
 20
-1.402208
  0
VERTEX
  8
EBENE_1
 62
   146
  6
CONTINUOUS
 10
4.013680
 20
-1.334609
  0
VERTEX
  8
EBENE_1
 62
   146
  6
CONTINUOUS
 10
4.032194
 20
-1.262931
  0
VERTEX
  8
EBENE_1
 62
   146
  6
CONTINUOUS
 10
4.051479
 20
-1.188061
  0
VERTEX
  8
EBENE_1
 62
   146
  6
CONTINUOUS
 10
4.071315
 20
-1.110880
  0
VERTEX
  8
EBENE_1
 62
   146
  6
CONTINUOUS
 10
4.091479
 20
-1.032274
  0
VERTEX
  8
EBENE_1
 62
   146
  6
CONTINUOUS
 10
4.111750
 20
-0.953125
  0
VERTEX
  8
EBENE_1
 62
   146
  6
CONTINUOUS
 10
4.131905
 20
-0.874318
  0
VERTEX
  8
EBENE_1
 62
   146
  6
CONTINUOUS
 10
4.151723
 20
-0.796737
  0
VERTEX
  8
EBENE_1
 62
   146
  6
CONTINUOUS
 10
4.170982
 20
-0.721265
  0
VERTEX
  8
EBENE_1
 62
   146
  6
CONTINUOUS
 10
4.189460
 20
-0.648786
  0
VERTEX
  8
EBENE_1
 62
   146
  6
CONTINUOUS
 10
4.206935
 20
-0.580184
  0
VERTEX
  8
EBENE_1
 62
   146
  6
CONTINUOUS
 10
4.223185
 20
-0.516343
  0
VERTEX
  8
EBENE_1
 62
   146
  6
CONTINUOUS
 10
4.237988
 20
-0.458147
  0
VERTEX
  8
EBENE_1
 62
   146
  6
CONTINUOUS
 10
4.251123
 20
-0.406479
  0
VERTEX
  8
EBENE_1
 62
   146
  6
CONTINUOUS
 10
4.262367
 20
-0.362223
  0
VERTEX
  8
EBENE_1
 62
   146
  6
CONTINUOUS
 10
4.271499
 20
-0.326264
  0
VERTEX
  8
EBENE_1
 62
   146
  6
CONTINUOUS
 10
4.278296
 20
-0.299484
  0
VERTEX
  8
EBENE_1
 62
   146
  6
CONTINUOUS
 10
4.282537
 20
-0.282768
  0
VERTEX
  8
EBENE_1
 62
   146
  6
CONTINUOUS
 10
4.284000
 20
-0.277000
  0
VERTEX
  8
EBENE_1
 62
   146
  6
CONTINUOUS
 10
4.286889
 20
-0.251963
  0
VERTEX
  8
EBENE_1
 62
   146
  6
CONTINUOUS
 10
4.287111
 20
-0.195370
  0
SEQEND
  8
0
  0
POLYLINE
  8
EBENE_1
 62
   146
  6
CONTINUOUS
 66
     1
 40
0.003000
 41
0.003000
 70
     1
  0
VERTEX
  8
EBENE_1
 62
   146
  6
CONTINUOUS
 10
-1.195000
 20
-1.875000
  0
VERTEX
  8
EBENE_1
 62
   146
  6
CONTINUOUS
 10
-1.214296
 20
-1.899519
  0
VERTEX
  8
EBENE_1
 62
   146
  6
CONTINUOUS
 10
-1.274704
 20
-1.959148
  0
VERTEX
  8
EBENE_1
 62
   146
  6
CONTINUOUS
 10
-1.380000
 20
-2.033000
  0
VERTEX
  8
EBENE_1
 62
   146
  6
CONTINUOUS
 10
-1.373344
 20
-2.033000
  0
VERTEX
  8
EBENE_1
 62
   146
  6
CONTINUOUS
 10
-1.364492
 20
-2.033000
  0
VERTEX
  8
EBENE_1
 62
   146
  6
CONTINUOUS
 10
-1.353476
 20
-2.033000
  0
VERTEX
  8
EBENE_1
 62
   146
  6
CONTINUOUS
 10
-1.340332
 20
-2.033000
  0
VERTEX
  8
EBENE_1
 62
   146
  6
CONTINUOUS
 10
-1.325094
 20
-2.033000
  0
VERTEX
  8
EBENE_1
 62
   146
  6
CONTINUOUS
 10
-1.307796
 20
-2.033000
  0
VERTEX
  8
EBENE_1
 62
   146
  6
CONTINUOUS
 10
-1.288473
 20
-2.033000
  0
VERTEX
  8
EBENE_1
 62
   146
  6
CONTINUOUS
 10
-1.267160
 20
-2.033000
  0
VERTEX
  8
EBENE_1
 62
   146
  6
CONTINUOUS
 10
-1.243891
 20
-2.033000
  0
VERTEX
  8
EBENE_1
 62
   146
  6
CONTINUOUS
 10
-1.218700
 20
-2.033000
  0
VERTEX
  8
EBENE_1
 62
   146
  6
CONTINUOUS
 10
-1.191622
 20
-2.033000
  0
VERTEX
  8
EBENE_1
 62
   146
  6
CONTINUOUS
 10
-1.162690
 20
-2.033000
  0
VERTEX
  8
EBENE_1
 62
   146
  6
CONTINUOUS
 10
-1.131941
 20
-2.033000
  0
VERTEX
  8
EBENE_1
 62
   146
  6
CONTINUOUS
 10
-1.099408
 20
-2.033000
  0
VERTEX
  8
EBENE_1
 62
   146
  6
CONTINUOUS
 10
-1.065125
 20
-2.033000
  0
VERTEX
  8
EBENE_1
 62
   146
  6
CONTINUOUS
 10
-1.029127
 20
-2.033000
  0
VERTEX
  8
EBENE_1
 62
   146
  6
CONTINUOUS
 10
-0.991449
 20
-2.033000
  0
VERTEX
  8
EBENE_1
 62
   146
  6
CONTINUOUS
 10
-0.952125
 20
-2.033000
  0
VERTEX
  8
EBENE_1
 62
   146
  6
CONTINUOUS
 10
-0.911189
 20
-2.033000
  0
VERTEX
  8
EBENE_1
 62
   146
  6
CONTINUOUS
 10
-0.868676
 20
-2.033000
  0
VERTEX
  8
EBENE_1
 62
   146
  6
CONTINUOUS
 10
-0.824620
 20
-2.033000
  0
VERTEX
  8
EBENE_1
 62
   146
  6
CONTINUOUS
 10
-0.779056
 20
-2.033000
  0
VERTEX
  8
EBENE_1
 62
   146
  6
CONTINUOUS
 10
-0.732018
 20
-2.033000
  0
VERTEX
  8
EBENE_1
 62
   146
  6
CONTINUOUS
 10
-0.683540
 20
-2.033000
  0
VERTEX
  8
EBENE_1
 62
   146
  6
CONTINUOUS
 10
-0.633658
 20
-2.033000
  0
VERTEX
  8
EBENE_1
 62
   146
  6
CONTINUOUS
 10
-0.582405
 20
-2.033000
  0
VERTEX
  8
EBENE_1
 62
   146
  6
CONTINUOUS
 10
-0.529816
 20
-2.033000
  0
VERTEX
  8
EBENE_1
 62
   146
  6
CONTINUOUS
 10
-0.475926
 20
-2.033000
  0
VERTEX
  8
EBENE_1
 62
   146
  6
CONTINUOUS
 10
-0.420768
 20
-2.033000
  0
VERTEX
  8
EBENE_1
 62
   146
  6
CONTINUOUS
 10
-0.364378
 20
-2.033000
  0
VERTEX
  8
EBENE_1
 62
   146
  6
CONTINUOUS
 10
-0.306790
 20
-2.033000
  0
VERTEX
  8
EBENE_1
 62
   146
  6
CONTINUOUS
 10
-0.248038
 20
-2.033000
  0
VERTEX
  8
EBENE_1
 62
   146
  6
CONTINUOUS
 10
-0.188156
 20
-2.033000
  0
VERTEX
  8
EBENE_1
 62
   146
  6
CONTINUOUS
 10
-0.127180
 20
-2.033000
  0
VERTEX
  8
EBENE_1
 62
   146
  6
CONTINUOUS
 10
-0.065143
 20
-2.033000
  0
VERTEX
  8
EBENE_1
 62
   146
  6
CONTINUOUS
 10
-0.002080
 20
-2.033000
  0
VERTEX
  8
EBENE_1
 62
   146
  6
CONTINUOUS
 10
0.061974
 20
-2.033000
  0
VERTEX
  8
EBENE_1
 62
   146
  6
CONTINUOUS
 10
0.126985
 20
-2.033000
  0
VERTEX
  8
EBENE_1
 62
   146
  6
CONTINUOUS
 10
0.192919
 20
-2.033000
  0
VERTEX
  8
EBENE_1
 62
   146
  6
CONTINUOUS
 10
0.259741
 20
-2.033000
  0
VERTEX
  8
EBENE_1
 62
   146
  6
CONTINUOUS
 10
0.327417
 20
-2.033000
  0
VERTEX
  8
EBENE_1
 62
   146
  6
CONTINUOUS
 10
0.395912
 20
-2.033000
  0
VERTEX
  8
EBENE_1
 62
   146
  6
CONTINUOUS
 10
0.465192
 20
-2.033000
  0
VERTEX
  8
EBENE_1
 62
   146
  6
CONTINUOUS
 10
0.535222
 20
-2.033000
  0
VERTEX
  8
EBENE_1
 62
   146
  6
CONTINUOUS
 10
0.605968
 20
-2.033000
  0
VERTEX
  8
EBENE_1
 62
   146
  6
CONTINUOUS
 10
0.677396
 20
-2.033000
  0
VERTEX
  8
EBENE_1
 62
   146
  6
CONTINUOUS
 10
0.749471
 20
-2.033000
  0
VERTEX
  8
EBENE_1
 62
   146
  6
CONTINUOUS
 10
0.822158
 20
-2.033000
  0
VERTEX
  8
EBENE_1
 62
   146
  6
CONTINUOUS
 10
0.895423
 20
-2.033000
  0
VERTEX
  8
EBENE_1
 62
   146
  6
CONTINUOUS
 10
0.969232
 20
-2.033000
  0
VERTEX
  8
EBENE_1
 62
   146
  6
CONTINUOUS
 10
1.043550
 20
-2.033000
  0
VERTEX
  8
EBENE_1
 62
   146
  6
CONTINUOUS
 10
1.118343
 20
-2.033000
  0
VERTEX
  8
EBENE_1
 62
   146
  6
CONTINUOUS
 10
1.193576
 20
-2.033000
  0
VERTEX
  8
EBENE_1
 62
   146
  6
CONTINUOUS
 10
1.269215
 20
-2.033000
  0
VERTEX
  8
EBENE_1
 62
   146
  6
CONTINUOUS
 10
1.345226
 20
-2.033000
  0
VERTEX
  8
EBENE_1
 62
   146
  6
CONTINUOUS
 10
1.421573
 20
-2.033000
  0
VERTEX
  8
EBENE_1
 62
   146
  6
CONTINUOUS
 10
1.498223
 20
-2.033000
  0
VERTEX
  8
EBENE_1
 62
   146
  6
CONTINUOUS
 10
1.575141
 20
-2.033000
  0
VERTEX
  8
EBENE_1
 62
   146
  6
CONTINUOUS
 10
1.652292
 20
-2.033000
  0
VERTEX
  8
EBENE_1
 62
   146
  6
CONTINUOUS
 10
1.729643
 20
-2.033000
  0
VERTEX
  8
EBENE_1
 62
   146
  6
CONTINUOUS
 10
1.807158
 20
-2.033000
  0
VERTEX
  8
EBENE_1
 62
   146
  6
CONTINUOUS
 10
1.884804
 20
-2.033000
  0
VERTEX
  8
EBENE_1
 62
   146
  6
CONTINUOUS
 10
1.962546
 20
-2.033000
  0
VERTEX
  8
EBENE_1
 62
   146
  6
CONTINUOUS
 10
2.040348
 20
-2.033000
  0
VERTEX
  8
EBENE_1
 62
   146
  6
CONTINUOUS
 10
2.118178
 20
-2.033000
  0
VERTEX
  8
EBENE_1
 62
   146
  6
CONTINUOUS
 10
2.196000
 20
-2.033000
  0
VERTEX
  8
EBENE_1
 62
   146
  6
CONTINUOUS
 10
2.273780
 20
-2.033000
  0
VERTEX
  8
EBENE_1
 62
   146
  6
CONTINUOUS
 10
2.351484
 20
-2.033000
  0
VERTEX
  8
EBENE_1
 62
   146
  6
CONTINUOUS
 10
2.429076
 20
-2.033000
  0
VERTEX
  8
EBENE_1
 62
   146
  6
CONTINUOUS
 10
2.506524
 20
-2.033000
  0
VERTEX
  8
EBENE_1
 62
   146
  6
CONTINUOUS
 10
2.583791
 20
-2.033000
  0
VERTEX
  8
EBENE_1
 62
   146
  6
CONTINUOUS
 10
2.660844
 20
-2.033000
  0
VERTEX
  8
EBENE_1
 62
   146
  6
CONTINUOUS
 10
2.737649
 20
-2.033000
  0
VERTEX
  8
EBENE_1
 62
   146
  6
CONTINUOUS
 10
2.814170
 20
-2.033000
  0
VERTEX
  8
EBENE_1
 62
   146
  6
CONTINUOUS
 10
2.890374
 20
-2.033000
  0
VERTEX
  8
EBENE_1
 62
   146
  6
CONTINUOUS
 10
2.966226
 20
-2.033000
  0
VERTEX
  8
EBENE_1
 62
   146
  6
CONTINUOUS
 10
3.041691
 20
-2.033000
  0
VERTEX
  8
EBENE_1
 62
   146
  6
CONTINUOUS
 10
3.116735
 20
-2.033000
  0
VERTEX
  8
EBENE_1
 62
   146
  6
CONTINUOUS
 10
3.191324
 20
-2.033000
  0
VERTEX
  8
EBENE_1
 62
   146
  6
CONTINUOUS
 10
3.265423
 20
-2.033000
  0
VERTEX
  8
EBENE_1
 62
   146
  6
CONTINUOUS
 10
3.338997
 20
-2.033000
  0
VERTEX
  8
EBENE_1
 62
   146
  6
CONTINUOUS
 10
3.412013
 20
-2.033000
  0
VERTEX
  8
EBENE_1
 62
   146
  6
CONTINUOUS
 10
3.484436
 20
-2.033000
  0
VERTEX
  8
EBENE_1
 62
   146
  6
CONTINUOUS
 10
3.556231
 20
-2.033000
  0
VERTEX
  8
EBENE_1
 62
   146
  6
CONTINUOUS
 10
3.627363
 20
-2.033000
  0
VERTEX
  8
EBENE_1
 62
   146
  6
CONTINUOUS
 10
3.697800
 20
-2.033000
  0
VERTEX
  8
EBENE_1
 62
   146
  6
CONTINUOUS
 10
3.767505
 20
-2.033000
  0
VERTEX
  8
EBENE_1
 62
   146
  6
CONTINUOUS
 10
3.836444
 20
-2.033000
  0
VERTEX
  8
EBENE_1
 62
   146
  6
CONTINUOUS
 10
3.904584
 20
-2.033000
  0
VERTEX
  8
EBENE_1
 62
   146
  6
CONTINUOUS
 10
3.971890
 20
-2.033000
  0
VERTEX
  8
EBENE_1
 62
   146
  6
CONTINUOUS
 10
4.038326
 20
-2.033000
  0
VERTEX
  8
EBENE_1
 62
   146
  6
CONTINUOUS
 10
4.103859
 20
-2.033000
  0
VERTEX
  8
EBENE_1
 62
   146
  6
CONTINUOUS
 10
4.168455
 20
-2.033000
  0
VERTEX
  8
EBENE_1
 62
   146
  6
CONTINUOUS
 10
4.232078
 20
-2.033000
  0
VERTEX
  8
EBENE_1
 62
   146
  6
CONTINUOUS
 10
4.294695
 20
-2.033000
  0
VERTEX
  8
EBENE_1
 62
   146
  6
CONTINUOUS
 10
4.356270
 20
-2.033000
  0
VERTEX
  8
EBENE_1
 62
   146
  6
CONTINUOUS
 10
4.416771
 20
-2.033000
  0
VERTEX
  8
EBENE_1
 62
   146
  6
CONTINUOUS
 10
4.476161
 20
-2.033000
  0
VERTEX
  8
EBENE_1
 62
   146
  6
CONTINUOUS
 10
4.534406
 20
-2.033000
  0
VERTEX
  8
EBENE_1
 62
   146
  6
CONTINUOUS
 10
4.591473
 20
-2.033000
  0
VERTEX
  8
EBENE_1
 62
   146
  6
CONTINUOUS
 10
4.647326
 20
-2.033000
  0
VERTEX
  8
EBENE_1
 62
   146
  6
CONTINUOUS
 10
4.701932
 20
-2.033000
  0
VERTEX
  8
EBENE_1
 62
   146
  6
CONTINUOUS
 10
4.755255
 20
-2.033000
  0
VERTEX
  8
EBENE_1
 62
   146
  6
CONTINUOUS
 10
4.807262
 20
-2.033000
  0
VERTEX
  8
EBENE_1
 62
   146
  6
CONTINUOUS
 10
4.857918
 20
-2.033000
  0
VERTEX
  8
EBENE_1
 62
   146
  6
CONTINUOUS
 10
4.907187
 20
-2.033000
  0
VERTEX
  8
EBENE_1
 62
   146
  6
CONTINUOUS
 10
4.955037
 20
-2.033000
  0
VERTEX
  8
EBENE_1
 62
   146
  6
CONTINUOUS
 10
5.001433
 20
-2.033000
  0
VERTEX
  8
EBENE_1
 62
   146
  6
CONTINUOUS
 10
5.046339
 20
-2.033000
  0
VERTEX
  8
EBENE_1
 62
   146
  6
CONTINUOUS
 10
5.089722
 20
-2.033000
  0
VERTEX
  8
EBENE_1
 62
   146
  6
CONTINUOUS
 10
5.131547
 20
-2.033000
  0
VERTEX
  8
EBENE_1
 62
   146
  6
CONTINUOUS
 10
5.171780
 20
-2.033000
  0
VERTEX
  8
EBENE_1
 62
   146
  6
CONTINUOUS
 10
5.210386
 20
-2.033000
  0
VERTEX
  8
EBENE_1
 62
   146
  6
CONTINUOUS
 10
5.247331
 20
-2.033000
  0
VERTEX
  8
EBENE_1
 62
   146
  6
CONTINUOUS
 10
5.282581
 20
-2.033000
  0
VERTEX
  8
EBENE_1
 62
   146
  6
CONTINUOUS
 10
5.316100
 20
-2.033000
  0
VERTEX
  8
EBENE_1
 62
   146
  6
CONTINUOUS
 10
5.347854
 20
-2.033000
  0
VERTEX
  8
EBENE_1
 62
   146
  6
CONTINUOUS
 10
5.377810
 20
-2.033000
  0
VERTEX
  8
EBENE_1
 62
   146
  6
CONTINUOUS
 10
5.405932
 20
-2.033000
  0
VERTEX
  8
EBENE_1
 62
   146
  6
CONTINUOUS
 10
5.432186
 20
-2.033000
  0
VERTEX
  8
EBENE_1
 62
   146
  6
CONTINUOUS
 10
5.456538
 20
-2.033000
  0
VERTEX
  8
EBENE_1
 62
   146
  6
CONTINUOUS
 10
5.478953
 20
-2.033000
  0
VERTEX
  8
EBENE_1
 62
   146
  6
CONTINUOUS
 10
5.499397
 20
-2.033000
  0
VERTEX
  8
EBENE_1
 62
   146
  6
CONTINUOUS
 10
5.517835
 20
-2.033000
  0
VERTEX
  8
EBENE_1
 62
   146
  6
CONTINUOUS
 10
5.534233
 20
-2.033000
  0
VERTEX
  8
EBENE_1
 62
   146
  6
CONTINUOUS
 10
5.548556
 20
-2.033000
  0
VERTEX
  8
EBENE_1
 62
   146
  6
CONTINUOUS
 10
5.560771
 20
-2.033000
  0
VERTEX
  8
EBENE_1
 62
   146
  6
CONTINUOUS
 10
5.570841
 20
-2.033000
  0
VERTEX
  8
EBENE_1
 62
   146
  6
CONTINUOUS
 10
5.578734
 20
-2.033000
  0
VERTEX
  8
EBENE_1
 62
   146
  6
CONTINUOUS
 10
5.584414
 20
-2.033000
  0
VERTEX
  8
EBENE_1
 62
   146
  6
CONTINUOUS
 10
5.587848
 20
-2.033000
  0
VERTEX
  8
EBENE_1
 62
   146
  6
CONTINUOUS
 10
5.589000
 20
-2.033000
  0
VERTEX
  8
EBENE_1
 62
   146
  6
CONTINUOUS
 10
5.631000
 20
-1.875000
  0
SEQEND
  8
0
  0
POLYLINE
  8
EBENE_1
 62
   146
  6
CONTINUOUS
 66
     1
 40
0.003000
 41
0.003000
 70
     1
  0
VERTEX
  8
EBENE_1
 62
   146
  6
CONTINUOUS
 10
6.504000
 20
-0.158000
  0
VERTEX
  8
EBENE_1
 62
   146
  6
CONTINUOUS
 10
6.422502
 20
-0.140722
  0
VERTEX
  8
EBENE_1
 62
   146
  6
CONTINUOUS
 10
6.351794
 20
-0.144217
  0
VERTEX
  8
EBENE_1
 62
   146
  6
CONTINUOUS
 10
6.291556
 20
-0.163481
  0
VERTEX
  8
EBENE_1
 62
   146
  6
CONTINUOUS
 10
6.241465
 20
-0.193512
  0
VERTEX
  8
EBENE_1
 62
   146
  6
CONTINUOUS
 10
6.201202
 20
-0.229303
  0
VERTEX
  8
EBENE_1
 62
   146
  6
CONTINUOUS
 10
6.170444
 20
-0.265852
  0
VERTEX
  8
EBENE_1
 62
   146
  6
CONTINUOUS
 10
6.148872
 20
-0.298154
  0
VERTEX
  8
EBENE_1
 62
   146
  6
CONTINUOUS
 10
6.136165
 20
-0.321204
  0
VERTEX
  8
EBENE_1
 62
   146
  6
CONTINUOUS
 10
6.132000
 20
-0.330000
  0
VERTEX
  8
EBENE_1
 62
   146
  6
CONTINUOUS
 10
6.112641
 20
-0.423422
  0
VERTEX
  8
EBENE_1
 62
   146
  6
CONTINUOUS
 10
6.118125
 20
-0.492375
  0
VERTEX
  8
EBENE_1
 62
   146
  6
CONTINUOUS
 10
6.138047
 20
-0.541641
  0
VERTEX
  8
EBENE_1
 62
   146
  6
CONTINUOUS
 10
6.162000
 20
-0.576000
  0
VERTEX
  8
EBENE_1
 62
   146
  6
CONTINUOUS
 10
6.202778
 20
-0.610333
  0
VERTEX
  8
EBENE_1
 62
   146
  6
CONTINUOUS
 10
6.263556
 20
-0.632000
  0
VERTEX
  8
EBENE_1
 62
   146
  6
CONTINUOUS
 10
6.345000
 20
-0.633000
  0
VERTEX
  8
EBENE_1
 62
   146
  6
CONTINUOUS
 10
6.401816
 20
-0.618416
  0
VERTEX
  8
EBENE_1
 62
   146
  6
CONTINUOUS
 10
6.459208
 20
-0.589048
  0
VERTEX
  8
EBENE_1
 62
   146
  6
CONTINUOUS
 10
6.513192
 20
-0.546672
  0
VERTEX
  8
EBENE_1
 62
   146
  6
CONTINUOUS
 10
6.559784
 20
-0.493064
  0
VERTEX
  8
EBENE_1
 62
   146
  6
CONTINUOUS
 10
6.595000
 20
-0.430000
  0
VERTEX
  8
EBENE_1
 62
   146
  6
CONTINUOUS
 10
6.614624
 20
-0.364176
  0
VERTEX
  8
EBENE_1
 62
   146
  6
CONTINUOUS
 10
6.616392
 20
-0.302288
  0
VERTEX
  8
EBENE_1
 62
   146
  6
CONTINUOUS
 10
6.599248
 20
-0.246112
  0
VERTEX
  8
EBENE_1
 62
   146
  6
CONTINUOUS
 10
6.562136
 20
-0.197424
  0
SEQEND
  8
0
  0
POLYLINE
  8
EBENE_1
 62
   146
  6
CONTINUOUS
 66
     1
 40
0.003000
 41
0.003000
 70
     1
  0
VERTEX
  8
EBENE_1
 62
   146
  6
CONTINUOUS
 10
6.506000
 20
-0.500000
  0
VERTEX
  8
EBENE_1
 62
   146
  6
CONTINUOUS
 10
6.433016
 20
-0.552216
  0
VERTEX
  8
EBENE_1
 62
   146
  6
CONTINUOUS
 10
6.369248
 20
-0.582688
  0
VERTEX
  8
EBENE_1
 62
   146
  6
CONTINUOUS
 10
6.311672
 20
-0.592952
  0
VERTEX
  8
EBENE_1
 62
   146
  6
CONTINUOUS
 10
6.257264
 20
-0.584544
  0
VERTEX
  8
EBENE_1
 62
   146
  6
CONTINUOUS
 10
6.203000
 20
-0.559000
  0
VERTEX
  8
EBENE_1
 62
   146
  6
CONTINUOUS
 10
6.155556
 20
-0.482111
  0
VERTEX
  8
EBENE_1
 62
   146
  6
CONTINUOUS
 10
6.154111
 20
-0.407222
  0
VERTEX
  8
EBENE_1
 62
   146
  6
CONTINUOUS
 10
6.170000
 20
-0.349000
  0
VERTEX
  8
EBENE_1
 62
   146
  6
CONTINUOUS
 10
6.175430
 20
-0.338602
  0
VERTEX
  8
EBENE_1
 62
   146
  6
CONTINUOUS
 10
6.191500
 20
-0.311938
  0
VERTEX
  8
EBENE_1
 62
   146
  6
CONTINUOUS
 10
6.217883
 20
-0.275805
  0
VERTEX
  8
EBENE_1
 62
   146
  6
CONTINUOUS
 10
6.254250
 20
-0.237000
  0
VERTEX
  8
EBENE_1
 62
   146
  6
CONTINUOUS
 10
6.300273
 20
-0.202320
  0
VERTEX
  8
EBENE_1
 62
   146
  6
CONTINUOUS
 10
6.355625
 20
-0.178563
  0
VERTEX
  8
EBENE_1
 62
   146
  6
CONTINUOUS
 10
6.419977
 20
-0.172523
  0
VERTEX
  8
EBENE_1
 62
   146
  6
CONTINUOUS
 10
6.493000
 20
-0.191000
  0
VERTEX
  8
EBENE_1
 62
   146
  6
CONTINUOUS
 10
6.522845
 20
-0.209376
  0
VERTEX
  8
EBENE_1
 62
   146
  6
CONTINUOUS
 10
6.548580
 20
-0.240539
  0
VERTEX
  8
EBENE_1
 62
   146
  6
CONTINUOUS
 10
6.567073
 20
-0.281971
  0
VERTEX
  8
EBENE_1
 62
   146
  6
CONTINUOUS
 10
6.575192
 20
-0.331152
  0
VERTEX
  8
EBENE_1
 62
   146
  6
CONTINUOUS
 10
6.569808
 20
-0.385563
  0
VERTEX
  8
EBENE_1
 62
   146
  6
CONTINUOUS
 10
6.547787
 20
-0.442685
  0
SEQEND
  8
0
  0
POLYLINE
  8
EBENE_1
 62
   146
  6
CONTINUOUS
 66
     1
 40
0.003000
 41
0.003000
 70
     1
  0
VERTEX
  8
EBENE_1
 62
   146
  6
CONTINUOUS
 10
6.424000
 20
-0.233000
  0
VERTEX
  8
EBENE_1
 62
   146
  6
CONTINUOUS
 10
6.298000
 20
-0.233000
  0
VERTEX
  8
EBENE_1
 62
   146
  6
CONTINUOUS
 10
6.282344
 20
-0.304016
  0
VERTEX
  8
EBENE_1
 62
   146
  6
CONTINUOUS
 10
6.268000
 20
-0.369875
  0
VERTEX
  8
EBENE_1
 62
   146
  6
CONTINUOUS
 10
6.254406
 20
-0.434797
  0
VERTEX
  8
EBENE_1
 62
   146
  6
CONTINUOUS
 10
6.241000
 20
-0.503000
  0
VERTEX
  8
EBENE_1
 62
   146
  6
CONTINUOUS
 10
6.307000
 20
-0.503000
  0
VERTEX
  8
EBENE_1
 62
   146
  6
CONTINUOUS
 10
6.330000
 20
-0.397000
  0
VERTEX
  8
EBENE_1
 62
   146
  6
CONTINUOUS
 10
6.342259
 20
-0.393593
  0
VERTEX
  8
EBENE_1
 62
   146
  6
CONTINUOUS
 10
6.355407
 20
-0.396407
  0
VERTEX
  8
EBENE_1
 62
   146
  6
CONTINUOUS
 10
6.367000
 20
-0.401000
  0
VERTEX
  8
EBENE_1
 62
   146
  6
CONTINUOUS
 10
6.375148
 20
-0.436778
  0
VERTEX
  8
EBENE_1
 62
   146
  6
CONTINUOUS
 10
6.382185
 20
-0.468556
  0
VERTEX
  8
EBENE_1
 62
   146
  6
CONTINUOUS
 10
6.389000
 20
-0.503000
  0
VERTEX
  8
EBENE_1
 62
   146
  6
CONTINUOUS
 10
6.462000
 20
-0.503000
  0
VERTEX
  8
EBENE_1
 62
   146
  6
CONTINUOUS
 10
6.462000
 20
-0.498000
  0
VERTEX
  8
EBENE_1
 62
   146
  6
CONTINUOUS
 10
6.433000
 20
-0.387000
  0
VERTEX
  8
EBENE_1
 62
   146
  6
CONTINUOUS
 10
6.430185
 20
-0.380889
  0
VERTEX
  8
EBENE_1
 62
   146
  6
CONTINUOUS
 10
6.427148
 20
-0.376111
  0
VERTEX
  8
EBENE_1
 62
   146
  6
CONTINUOUS
 10
6.423000
 20
-0.372000
  0
VERTEX
  8
EBENE_1
 62
   146
  6
CONTINUOUS
 10
6.431704
 20
-0.364037
  0
VERTEX
  8
EBENE_1
 62
   146
  6
CONTINUOUS
 10
6.440630
 20
-0.360296
  0
VERTEX
  8
EBENE_1
 62
   146
  6
CONTINUOUS
 10
6.448000
 20
-0.355000
  0
VERTEX
  8
EBENE_1
 62
   146
  6
CONTINUOUS
 10
6.455741
 20
-0.351037
  0
VERTEX
  8
EBENE_1
 62
   146
  6
CONTINUOUS
 10
6.459259
 20
-0.346630
  0
VERTEX
  8
EBENE_1
 62
   146
  6
CONTINUOUS
 10
6.465000
 20
-0.344000
  0
VERTEX
  8
EBENE_1
 62
   146
  6
CONTINUOUS
 10
6.483000
 20
-0.311000
  0
VERTEX
  8
EBENE_1
 62
   146
  6
CONTINUOUS
 10
6.479926
 20
-0.269667
  0
VERTEX
  8
EBENE_1
 62
   146
  6
CONTINUOUS
 10
6.459074
 20
-0.245000
  0
SEQEND
  8
0
  0
POLYLINE
  8
EBENE_1
 62
   146
  6
CONTINUOUS
 66
     1
 40
0.003000
 41
0.003000
 70
     1
  0
VERTEX
  8
EBENE_1
 62
   146
  6
CONTINUOUS
 10
6.339000
 20
-0.334000
  0
VERTEX
  8
EBENE_1
 62
   146
  6
CONTINUOUS
 10
6.353000
 20
-0.272000
  0
VERTEX
  8
EBENE_1
 62
   146
  6
CONTINUOUS
 10
6.393000
 20
-0.272000
  0
VERTEX
  8
EBENE_1
 62
   146
  6
CONTINUOUS
 10
6.410000
 20
-0.281000
  0
VERTEX
  8
EBENE_1
 62
   146
  6
CONTINUOUS
 10
6.406926
 20
-0.318296
  0
VERTEX
  8
EBENE_1
 62
   146
  6
CONTINUOUS
 10
6.377407
 20
-0.332037
  0
SEQEND
  8
0
  0
ENDSEC
  0
EOF
