  0
SECTION
  2
HEADER
  9
$ACADVER
  1
AC1006
  9
$EXTMIN
 10
-0.980748
 20
-0.979583
  9
$EXTMAX
 10
0.984098
 20
0.985780
  9
$LTSCALE
 40
0.000394
  9
$PDMODE
 70
    35
  9
$PDSIZE
 40
0.000315
  0
ENDSEC
  0
SECTION
  2
TABLES
  0
TABLE
  2
LTYPE
 70
     9
  0
LTYPE
  2
CONTINUOUS
 70
    64
  3
Solid line
 72
    65
 73
     0
 40
0.000000
  0
LTYPE
  2
DASHED
 70
    64
  3
__ __ __ __ __ __ __ __ __ __ __ __ __ __ __
 72
    65
 73
     2
 40
0.000003
 49
0.000002
 49
-0.000001
  0
LTYPE
  2
HIDDEN
 70
    64
  3
 _ _ _ _ _ _ _ _ _ _ _ _ _ _ _ _ _ _ _ _ _ _
 72
    65
 73
     2
 40
0.000001
 49
0.000001
 49
-0.000000
  0
LTYPE
  2
CENTER
 70
    64
  3
____ _ ____ _ ____ _ ____ _ ____ _ ____ _ ____
 72
    65
 73
     4
 40
0.000008
 49
0.000005
 49
-0.000001
 49
0.000001
 49
-0.000001
  0
LTYPE
  2
PHANTOM
 70
    64
  3
_____ _ _ _____ _ _ _____ _ _ _____ _ _ ____
 72
    65
 73
     6
 40
0.000010
 49
0.000005
 49
-0.000001
 49
0.000001
 49
-0.000001
 49
0.000001
 49
-0.000001
  0
LTYPE
  2
DOT
 70
    64
  3
...............................................
 72
    65
 73
     2
 40
0.000001
 49
0.000000
 49
-0.000001
  0
LTYPE
  2
DASHDOT
 70
    64
  3
__ . __ . __ . __ . __ . __ . __ . __ . __ . __
 72
    65
 73
     4
 40
0.000004
 49
0.000002
 49
-0.000001
 49
0.000000
 49
-0.000001
  0
LTYPE
  2
BORDER
 70
    64
  3
__ __ . __ __ . __ __ . __ __ . __ __ . __ __
 72
    65
 73
     6
 40
0.000007
 49
0.000002
 49
-0.000001
 49
0.000002
 49
-0.000001
 49
0.000000
 49
-0.000001
  0
LTYPE
  2
DIVIDE
 70
    64
  3
__ . . __ . . __ . . __ . . __ . . __ . . __
 72
    65
 73
     6
 40
0.000005
 49
0.000002
 49
-0.000001
 49
0.000000
 49
-0.000001
 49
0.000000
 49
-0.000001
  0
LTYPE
  2
DOTDOT
 70
    64
  3
 . .  . .  . .  . .  . .  . . 
 72
    65
 73
     5
 40
0.000002
 49
-0.000001
 49
0.000000
 49
-0.000001
 49
0.000000
 49
-0.000001
  0
ENDTAB
  0
TABLE
  2
STYLE
 70
     0
  0
ENDTAB
  0
TABLE
  2
LAYER
 70
     3
  0
LAYER
  2
FOREGROUND
 70
    64
 62
     7
  6
CONTINUOUS
  0
LAYER
  2
BACKGROUND
 70
    65
 62
    -7
  6
CONTINUOUS
  0
LAYER
  2
EBENE_1
 70
    64
 62
     7
  6
CONTINUOUS
  0
ENDTAB
  0
ENDSEC
  0
SECTION
  2
ENTITIES
  0
POLYLINE
  8
EBENE_1
 62
   146
  6
CONTINUOUS
 66
     1
 40
0.003000
 41
0.003000
 70
     1
  0
VERTEX
  8
EBENE_1
 62
   146
  6
CONTINUOUS
 10
0.950945
 20
0.003382
  0
VERTEX
  8
EBENE_1
 62
   146
  6
CONTINUOUS
 10
0.950852
 20
-0.010047
  0
VERTEX
  8
EBENE_1
 62
   146
  6
CONTINUOUS
 10
0.950574
 20
-0.023431
  0
VERTEX
  8
EBENE_1
 62
   146
  6
CONTINUOUS
 10
0.950112
 20
-0.036769
  0
VERTEX
  8
EBENE_1
 62
   146
  6
CONTINUOUS
 10
0.949468
 20
-0.050059
  0
VERTEX
  8
EBENE_1
 62
   146
  6
CONTINUOUS
 10
0.948642
 20
-0.063302
  0
VERTEX
  8
EBENE_1
 62
   146
  6
CONTINUOUS
 10
0.947636
 20
-0.076494
  0
VERTEX
  8
EBENE_1
 62
   146
  6
CONTINUOUS
 10
0.946451
 20
-0.089636
  0
VERTEX
  8
EBENE_1
 62
   146
  6
CONTINUOUS
 10
0.945088
 20
-0.102726
  0
VERTEX
  8
EBENE_1
 62
   146
  6
CONTINUOUS
 10
0.943548
 20
-0.115762
  0
VERTEX
  8
EBENE_1
 62
   146
  6
CONTINUOUS
 10
0.941834
 20
-0.128744
  0
VERTEX
  8
EBENE_1
 62
   146
  6
CONTINUOUS
 10
0.939945
 20
-0.141670
  0
VERTEX
  8
EBENE_1
 62
   146
  6
CONTINUOUS
 10
0.937883
 20
-0.154539
  0
VERTEX
  8
EBENE_1
 62
   146
  6
CONTINUOUS
 10
0.935650
 20
-0.167350
  0
VERTEX
  8
EBENE_1
 62
   146
  6
CONTINUOUS
 10
0.933247
 20
-0.180102
  0
VERTEX
  8
EBENE_1
 62
   146
  6
CONTINUOUS
 10
0.930674
 20
-0.192793
  0
VERTEX
  8
EBENE_1
 62
   146
  6
CONTINUOUS
 10
0.927933
 20
-0.205422
  0
VERTEX
  8
EBENE_1
 62
   146
  6
CONTINUOUS
 10
0.925025
 20
-0.217988
  0
VERTEX
  8
EBENE_1
 62
   146
  6
CONTINUOUS
 10
0.921952
 20
-0.230489
  0
VERTEX
  8
EBENE_1
 62
   146
  6
CONTINUOUS
 10
0.918715
 20
-0.242925
  0
VERTEX
  8
EBENE_1
 62
   146
  6
CONTINUOUS
 10
0.915314
 20
-0.255295
  0
VERTEX
  8
EBENE_1
 62
   146
  6
CONTINUOUS
 10
0.911752
 20
-0.267596
  0
VERTEX
  8
EBENE_1
 62
   146
  6
CONTINUOUS
 10
0.908028
 20
-0.279829
  0
VERTEX
  8
EBENE_1
 62
   146
  6
CONTINUOUS
 10
0.904146
 20
-0.291990
  0
VERTEX
  8
EBENE_1
 62
   146
  6
CONTINUOUS
 10
0.900105
 20
-0.304081
  0
VERTEX
  8
EBENE_1
 62
   146
  6
CONTINUOUS
 10
0.895907
 20
-0.316098
  0
VERTEX
  8
EBENE_1
 62
   146
  6
CONTINUOUS
 10
0.891554
 20
-0.328041
  0
VERTEX
  8
EBENE_1
 62
   146
  6
CONTINUOUS
 10
0.887045
 20
-0.339910
  0
VERTEX
  8
EBENE_1
 62
   146
  6
CONTINUOUS
 10
0.882384
 20
-0.351701
  0
VERTEX
  8
EBENE_1
 62
   146
  6
CONTINUOUS
 10
0.877570
 20
-0.363415
  0
VERTEX
  8
EBENE_1
 62
   146
  6
CONTINUOUS
 10
0.872606
 20
-0.375050
  0
VERTEX
  8
EBENE_1
 62
   146
  6
CONTINUOUS
 10
0.867492
 20
-0.386605
  0
VERTEX
  8
EBENE_1
 62
   146
  6
CONTINUOUS
 10
0.862229
 20
-0.398078
  0
VERTEX
  8
EBENE_1
 62
   146
  6
CONTINUOUS
 10
0.856819
 20
-0.409469
  0
VERTEX
  8
EBENE_1
 62
   146
  6
CONTINUOUS
 10
0.851263
 20
-0.420775
  0
VERTEX
  8
EBENE_1
 62
   146
  6
CONTINUOUS
 10
0.845562
 20
-0.431997
  0
VERTEX
  8
EBENE_1
 62
   146
  6
CONTINUOUS
 10
0.839718
 20
-0.443133
  0
VERTEX
  8
EBENE_1
 62
   146
  6
CONTINUOUS
 10
0.833731
 20
-0.454181
  0
VERTEX
  8
EBENE_1
 62
   146
  6
CONTINUOUS
 10
0.827604
 20
-0.465140
  0
VERTEX
  8
EBENE_1
 62
   146
  6
CONTINUOUS
 10
0.821336
 20
-0.476010
  0
VERTEX
  8
EBENE_1
 62
   146
  6
CONTINUOUS
 10
0.814929
 20
-0.486788
  0
VERTEX
  8
EBENE_1
 62
   146
  6
CONTINUOUS
 10
0.808385
 20
-0.497474
  0
VERTEX
  8
EBENE_1
 62
   146
  6
CONTINUOUS
 10
0.801705
 20
-0.508066
  0
VERTEX
  8
EBENE_1
 62
   146
  6
CONTINUOUS
 10
0.794890
 20
-0.518564
  0
VERTEX
  8
EBENE_1
 62
   146
  6
CONTINUOUS
 10
0.787941
 20
-0.528965
  0
VERTEX
  8
EBENE_1
 62
   146
  6
CONTINUOUS
 10
0.780859
 20
-0.539269
  0
VERTEX
  8
EBENE_1
 62
   146
  6
CONTINUOUS
 10
0.773646
 20
-0.549475
  0
VERTEX
  8
EBENE_1
 62
   146
  6
CONTINUOUS
 10
0.766303
 20
-0.559581
  0
VERTEX
  8
EBENE_1
 62
   146
  6
CONTINUOUS
 10
0.758831
 20
-0.569586
  0
VERTEX
  8
EBENE_1
 62
   146
  6
CONTINUOUS
 10
0.751231
 20
-0.579489
  0
VERTEX
  8
EBENE_1
 62
   146
  6
CONTINUOUS
 10
0.743505
 20
-0.589289
  0
VERTEX
  8
EBENE_1
 62
   146
  6
CONTINUOUS
 10
0.735654
 20
-0.598984
  0
VERTEX
  8
EBENE_1
 62
   146
  6
CONTINUOUS
 10
0.727678
 20
-0.608573
  0
VERTEX
  8
EBENE_1
 62
   146
  6
CONTINUOUS
 10
0.719579
 20
-0.618055
  0
VERTEX
  8
EBENE_1
 62
   146
  6
CONTINUOUS
 10
0.711359
 20
-0.627429
  0
VERTEX
  8
EBENE_1
 62
   146
  6
CONTINUOUS
 10
0.703019
 20
-0.636693
  0
VERTEX
  8
EBENE_1
 62
   146
  6
CONTINUOUS
 10
0.694559
 20
-0.645847
  0
VERTEX
  8
EBENE_1
 62
   146
  6
CONTINUOUS
 10
0.685982
 20
-0.654889
  0
VERTEX
  8
EBENE_1
 62
   146
  6
CONTINUOUS
 10
0.677287
 20
-0.663818
  0
VERTEX
  8
EBENE_1
 62
   146
  6
CONTINUOUS
 10
0.668477
 20
-0.672632
  0
VERTEX
  8
EBENE_1
 62
   146
  6
CONTINUOUS
 10
0.659553
 20
-0.681331
  0
VERTEX
  8
EBENE_1
 62
   146
  6
CONTINUOUS
 10
0.650516
 20
-0.689913
  0
VERTEX
  8
EBENE_1
 62
   146
  6
CONTINUOUS
 10
0.641367
 20
-0.698377
  0
VERTEX
  8
EBENE_1
 62
   146
  6
CONTINUOUS
 10
0.632107
 20
-0.706721
  0
VERTEX
  8
EBENE_1
 62
   146
  6
CONTINUOUS
 10
0.622738
 20
-0.714946
  0
VERTEX
  8
EBENE_1
 62
   146
  6
CONTINUOUS
 10
0.613261
 20
-0.723048
  0
VERTEX
  8
EBENE_1
 62
   146
  6
CONTINUOUS
 10
0.603676
 20
-0.731028
  0
VERTEX
  8
EBENE_1
 62
   146
  6
CONTINUOUS
 10
0.593986
 20
-0.738884
  0
VERTEX
  8
EBENE_1
 62
   146
  6
CONTINUOUS
 10
0.584192
 20
-0.746614
  0
VERTEX
  8
EBENE_1
 62
   146
  6
CONTINUOUS
 10
0.574294
 20
-0.754218
  0
VERTEX
  8
EBENE_1
 62
   146
  6
CONTINUOUS
 10
0.564294
 20
-0.761693
  0
VERTEX
  8
EBENE_1
 62
   146
  6
CONTINUOUS
 10
0.554193
 20
-0.769040
  0
VERTEX
  8
EBENE_1
 62
   146
  6
CONTINUOUS
 10
0.543993
 20
-0.776257
  0
VERTEX
  8
EBENE_1
 62
   146
  6
CONTINUOUS
 10
0.533694
 20
-0.783342
  0
VERTEX
  8
EBENE_1
 62
   146
  6
CONTINUOUS
 10
0.523298
 20
-0.790295
  0
VERTEX
  8
EBENE_1
 62
   146
  6
CONTINUOUS
 10
0.512805
 20
-0.797114
  0
VERTEX
  8
EBENE_1
 62
   146
  6
CONTINUOUS
 10
0.502218
 20
-0.803797
  0
VERTEX
  8
EBENE_1
 62
   146
  6
CONTINUOUS
 10
0.491538
 20
-0.810344
  0
VERTEX
  8
EBENE_1
 62
   146
  6
CONTINUOUS
 10
0.480765
 20
-0.816754
  0
VERTEX
  8
EBENE_1
 62
   146
  6
CONTINUOUS
 10
0.469901
 20
-0.823025
  0
VERTEX
  8
EBENE_1
 62
   146
  6
CONTINUOUS
 10
0.458948
 20
-0.829156
  0
VERTEX
  8
EBENE_1
 62
   146
  6
CONTINUOUS
 10
0.447905
 20
-0.835146
  0
VERTEX
  8
EBENE_1
 62
   146
  6
CONTINUOUS
 10
0.436775
 20
-0.840993
  0
VERTEX
  8
EBENE_1
 62
   146
  6
CONTINUOUS
 10
0.425559
 20
-0.846697
  0
VERTEX
  8
EBENE_1
 62
   146
  6
CONTINUOUS
 10
0.414258
 20
-0.852255
  0
VERTEX
  8
EBENE_1
 62
   146
  6
CONTINUOUS
 10
0.402873
 20
-0.857668
  0
VERTEX
  8
EBENE_1
 62
   146
  6
CONTINUOUS
 10
0.391406
 20
-0.862933
  0
VERTEX
  8
EBENE_1
 62
   146
  6
CONTINUOUS
 10
0.379857
 20
-0.868050
  0
VERTEX
  8
EBENE_1
 62
   146
  6
CONTINUOUS
 10
0.368228
 20
-0.873017
  0
VERTEX
  8
EBENE_1
 62
   146
  6
CONTINUOUS
 10
0.356520
 20
-0.877833
  0
VERTEX
  8
EBENE_1
 62
   146
  6
CONTINUOUS
 10
0.344734
 20
-0.882497
  0
VERTEX
  8
EBENE_1
 62
   146
  6
CONTINUOUS
 10
0.332872
 20
-0.887008
  0
VERTEX
  8
EBENE_1
 62
   146
  6
CONTINUOUS
 10
0.320935
 20
-0.891363
  0
VERTEX
  8
EBENE_1
 62
   146
  6
CONTINUOUS
 10
0.308924
 20
-0.895563
  0
VERTEX
  8
EBENE_1
 62
   146
  6
CONTINUOUS
 10
0.296840
 20
-0.899606
  0
VERTEX
  8
EBENE_1
 62
   146
  6
CONTINUOUS
 10
0.284684
 20
-0.903491
  0
VERTEX
  8
EBENE_1
 62
   146
  6
CONTINUOUS
 10
0.272458
 20
-0.907216
  0
VERTEX
  8
EBENE_1
 62
   146
  6
CONTINUOUS
 10
0.260163
 20
-0.910780
  0
VERTEX
  8
EBENE_1
 62
   146
  6
CONTINUOUS
 10
0.247800
 20
-0.914182
  0
VERTEX
  8
EBENE_1
 62
   146
  6
CONTINUOUS
 10
0.235370
 20
-0.917422
  0
VERTEX
  8
EBENE_1
 62
   146
  6
CONTINUOUS
 10
0.222875
 20
-0.920496
  0
VERTEX
  8
EBENE_1
 62
   146
  6
CONTINUOUS
 10
0.210315
 20
-0.923405
  0
VERTEX
  8
EBENE_1
 62
   146
  6
CONTINUOUS
 10
0.197692
 20
-0.926148
  0
VERTEX
  8
EBENE_1
 62
   146
  6
CONTINUOUS
 10
0.185008
 20
-0.928722
  0
VERTEX
  8
EBENE_1
 62
   146
  6
CONTINUOUS
 10
0.172263
 20
-0.931127
  0
VERTEX
  8
EBENE_1
 62
   146
  6
CONTINUOUS
 10
0.159459
 20
-0.933361
  0
VERTEX
  8
EBENE_1
 62
   146
  6
CONTINUOUS
 10
0.146596
 20
-0.935424
  0
VERTEX
  8
EBENE_1
 62
   146
  6
CONTINUOUS
 10
0.133677
 20
-0.937313
  0
VERTEX
  8
EBENE_1
 62
   146
  6
CONTINUOUS
 10
0.120701
 20
-0.939029
  0
VERTEX
  8
EBENE_1
 62
   146
  6
CONTINUOUS
 10
0.107672
 20
-0.940569
  0
VERTEX
  8
EBENE_1
 62
   146
  6
CONTINUOUS
 10
0.094589
 20
-0.941933
  0
VERTEX
  8
EBENE_1
 62
   146
  6
CONTINUOUS
 10
0.081453
 20
-0.943118
  0
VERTEX
  8
EBENE_1
 62
   146
  6
CONTINUOUS
 10
0.068268
 20
-0.944125
  0
VERTEX
  8
EBENE_1
 62
   146
  6
CONTINUOUS
 10
0.055032
 20
-0.944951
  0
VERTEX
  8
EBENE_1
 62
   146
  6
CONTINUOUS
 10
0.041748
 20
-0.945596
  0
VERTEX
  8
EBENE_1
 62
   146
  6
CONTINUOUS
 10
0.028417
 20
-0.946058
  0
VERTEX
  8
EBENE_1
 62
   146
  6
CONTINUOUS
 10
0.015040
 20
-0.946336
  0
VERTEX
  8
EBENE_1
 62
   146
  6
CONTINUOUS
 10
0.001618
 20
-0.946429
  0
VERTEX
  8
EBENE_1
 62
   146
  6
CONTINUOUS
 10
0.001618
 20
-0.946429
  0
VERTEX
  8
EBENE_1
 62
   146
  6
CONTINUOUS
 10
-0.011801
 20
-0.946336
  0
VERTEX
  8
EBENE_1
 62
   146
  6
CONTINUOUS
 10
-0.025175
 20
-0.946058
  0
VERTEX
  8
EBENE_1
 62
   146
  6
CONTINUOUS
 10
-0.038503
 20
-0.945596
  0
VERTEX
  8
EBENE_1
 62
   146
  6
CONTINUOUS
 10
-0.051785
 20
-0.944951
  0
VERTEX
  8
EBENE_1
 62
   146
  6
CONTINUOUS
 10
-0.065017
 20
-0.944125
  0
VERTEX
  8
EBENE_1
 62
   146
  6
CONTINUOUS
 10
-0.078201
 20
-0.943118
  0
VERTEX
  8
EBENE_1
 62
   146
  6
CONTINUOUS
 10
-0.091333
 20
-0.941933
  0
VERTEX
  8
EBENE_1
 62
   146
  6
CONTINUOUS
 10
-0.104414
 20
-0.940569
  0
VERTEX
  8
EBENE_1
 62
   146
  6
CONTINUOUS
 10
-0.117441
 20
-0.939029
  0
VERTEX
  8
EBENE_1
 62
   146
  6
CONTINUOUS
 10
-0.130414
 20
-0.937313
  0
VERTEX
  8
EBENE_1
 62
   146
  6
CONTINUOUS
 10
-0.143331
 20
-0.935424
  0
VERTEX
  8
EBENE_1
 62
   146
  6
CONTINUOUS
 10
-0.156191
 20
-0.933361
  0
VERTEX
  8
EBENE_1
 62
   146
  6
CONTINUOUS
 10
-0.168993
 20
-0.931127
  0
VERTEX
  8
EBENE_1
 62
   146
  6
CONTINUOUS
 10
-0.181736
 20
-0.928722
  0
VERTEX
  8
EBENE_1
 62
   146
  6
CONTINUOUS
 10
-0.194418
 20
-0.926148
  0
VERTEX
  8
EBENE_1
 62
   146
  6
CONTINUOUS
 10
-0.207038
 20
-0.923405
  0
VERTEX
  8
EBENE_1
 62
   146
  6
CONTINUOUS
 10
-0.219596
 20
-0.920496
  0
VERTEX
  8
EBENE_1
 62
   146
  6
CONTINUOUS
 10
-0.232089
 20
-0.917422
  0
VERTEX
  8
EBENE_1
 62
   146
  6
CONTINUOUS
 10
-0.244517
 20
-0.914182
  0
VERTEX
  8
EBENE_1
 62
   146
  6
CONTINUOUS
 10
-0.256878
 20
-0.910780
  0
VERTEX
  8
EBENE_1
 62
   146
  6
CONTINUOUS
 10
-0.269171
 20
-0.907216
  0
VERTEX
  8
EBENE_1
 62
   146
  6
CONTINUOUS
 10
-0.281395
 20
-0.903491
  0
VERTEX
  8
EBENE_1
 62
   146
  6
CONTINUOUS
 10
-0.293549
 20
-0.899606
  0
VERTEX
  8
EBENE_1
 62
   146
  6
CONTINUOUS
 10
-0.305631
 20
-0.895563
  0
VERTEX
  8
EBENE_1
 62
   146
  6
CONTINUOUS
 10
-0.317641
 20
-0.891363
  0
VERTEX
  8
EBENE_1
 62
   146
  6
CONTINUOUS
 10
-0.329576
 20
-0.887008
  0
VERTEX
  8
EBENE_1
 62
   146
  6
CONTINUOUS
 10
-0.341436
 20
-0.882497
  0
VERTEX
  8
EBENE_1
 62
   146
  6
CONTINUOUS
 10
-0.353220
 20
-0.877833
  0
VERTEX
  8
EBENE_1
 62
   146
  6
CONTINUOUS
 10
-0.364927
 20
-0.873017
  0
VERTEX
  8
EBENE_1
 62
   146
  6
CONTINUOUS
 10
-0.376554
 20
-0.868050
  0
VERTEX
  8
EBENE_1
 62
   146
  6
CONTINUOUS
 10
-0.388101
 20
-0.862933
  0
VERTEX
  8
EBENE_1
 62
   146
  6
CONTINUOUS
 10
-0.399567
 20
-0.857668
  0
VERTEX
  8
EBENE_1
 62
   146
  6
CONTINUOUS
 10
-0.410951
 20
-0.852255
  0
VERTEX
  8
EBENE_1
 62
   146
  6
CONTINUOUS
 10
-0.422250
 20
-0.846697
  0
VERTEX
  8
EBENE_1
 62
   146
  6
CONTINUOUS
 10
-0.433465
 20
-0.840993
  0
VERTEX
  8
EBENE_1
 62
   146
  6
CONTINUOUS
 10
-0.444594
 20
-0.835146
  0
VERTEX
  8
EBENE_1
 62
   146
  6
CONTINUOUS
 10
-0.455635
 20
-0.829156
  0
VERTEX
  8
EBENE_1
 62
   146
  6
CONTINUOUS
 10
-0.466587
 20
-0.823025
  0
VERTEX
  8
EBENE_1
 62
   146
  6
CONTINUOUS
 10
-0.477450
 20
-0.816754
  0
VERTEX
  8
EBENE_1
 62
   146
  6
CONTINUOUS
 10
-0.488221
 20
-0.810344
  0
VERTEX
  8
EBENE_1
 62
   146
  6
CONTINUOUS
 10
-0.498900
 20
-0.803797
  0
VERTEX
  8
EBENE_1
 62
   146
  6
CONTINUOUS
 10
-0.509486
 20
-0.797114
  0
VERTEX
  8
EBENE_1
 62
   146
  6
CONTINUOUS
 10
-0.519977
 20
-0.790295
  0
VERTEX
  8
EBENE_1
 62
   146
  6
CONTINUOUS
 10
-0.530372
 20
-0.783342
  0
VERTEX
  8
EBENE_1
 62
   146
  6
CONTINUOUS
 10
-0.540670
 20
-0.776257
  0
VERTEX
  8
EBENE_1
 62
   146
  6
CONTINUOUS
 10
-0.550870
 20
-0.769040
  0
VERTEX
  8
EBENE_1
 62
   146
  6
CONTINUOUS
 10
-0.560969
 20
-0.761693
  0
VERTEX
  8
EBENE_1
 62
   146
  6
CONTINUOUS
 10
-0.570968
 20
-0.754218
  0
VERTEX
  8
EBENE_1
 62
   146
  6
CONTINUOUS
 10
-0.580865
 20
-0.746614
  0
VERTEX
  8
EBENE_1
 62
   146
  6
CONTINUOUS
 10
-0.590659
 20
-0.738884
  0
VERTEX
  8
EBENE_1
 62
   146
  6
CONTINUOUS
 10
-0.600348
 20
-0.731028
  0
VERTEX
  8
EBENE_1
 62
   146
  6
CONTINUOUS
 10
-0.609932
 20
-0.723048
  0
VERTEX
  8
EBENE_1
 62
   146
  6
CONTINUOUS
 10
-0.619408
 20
-0.714946
  0
VERTEX
  8
EBENE_1
 62
   146
  6
CONTINUOUS
 10
-0.628776
 20
-0.706721
  0
VERTEX
  8
EBENE_1
 62
   146
  6
CONTINUOUS
 10
-0.638035
 20
-0.698377
  0
VERTEX
  8
EBENE_1
 62
   146
  6
CONTINUOUS
 10
-0.647184
 20
-0.689913
  0
VERTEX
  8
EBENE_1
 62
   146
  6
CONTINUOUS
 10
-0.656220
 20
-0.681331
  0
VERTEX
  8
EBENE_1
 62
   146
  6
CONTINUOUS
 10
-0.665144
 20
-0.672632
  0
VERTEX
  8
EBENE_1
 62
   146
  6
CONTINUOUS
 10
-0.673953
 20
-0.663818
  0
VERTEX
  8
EBENE_1
 62
   146
  6
CONTINUOUS
 10
-0.682646
 20
-0.654889
  0
VERTEX
  8
EBENE_1
 62
   146
  6
CONTINUOUS
 10
-0.691223
 20
-0.645847
  0
VERTEX
  8
EBENE_1
 62
   146
  6
CONTINUOUS
 10
-0.699682
 20
-0.636693
  0
VERTEX
  8
EBENE_1
 62
   146
  6
CONTINUOUS
 10
-0.708022
 20
-0.627429
  0
VERTEX
  8
EBENE_1
 62
   146
  6
CONTINUOUS
 10
-0.716242
 20
-0.618055
  0
VERTEX
  8
EBENE_1
 62
   146
  6
CONTINUOUS
 10
-0.724340
 20
-0.608573
  0
VERTEX
  8
EBENE_1
 62
   146
  6
CONTINUOUS
 10
-0.732315
 20
-0.598984
  0
VERTEX
  8
EBENE_1
 62
   146
  6
CONTINUOUS
 10
-0.740166
 20
-0.589289
  0
VERTEX
  8
EBENE_1
 62
   146
  6
CONTINUOUS
 10
-0.747892
 20
-0.579489
  0
VERTEX
  8
EBENE_1
 62
   146
  6
CONTINUOUS
 10
-0.755491
 20
-0.569586
  0
VERTEX
  8
EBENE_1
 62
   146
  6
CONTINUOUS
 10
-0.762963
 20
-0.559581
  0
VERTEX
  8
EBENE_1
 62
   146
  6
CONTINUOUS
 10
-0.770306
 20
-0.549475
  0
VERTEX
  8
EBENE_1
 62
   146
  6
CONTINUOUS
 10
-0.777518
 20
-0.539269
  0
VERTEX
  8
EBENE_1
 62
   146
  6
CONTINUOUS
 10
-0.784599
 20
-0.528965
  0
VERTEX
  8
EBENE_1
 62
   146
  6
CONTINUOUS
 10
-0.791548
 20
-0.518564
  0
VERTEX
  8
EBENE_1
 62
   146
  6
CONTINUOUS
 10
-0.798363
 20
-0.508066
  0
VERTEX
  8
EBENE_1
 62
   146
  6
CONTINUOUS
 10
-0.805043
 20
-0.497474
  0
VERTEX
  8
EBENE_1
 62
   146
  6
CONTINUOUS
 10
-0.811586
 20
-0.486788
  0
VERTEX
  8
EBENE_1
 62
   146
  6
CONTINUOUS
 10
-0.817993
 20
-0.476010
  0
VERTEX
  8
EBENE_1
 62
   146
  6
CONTINUOUS
 10
-0.824260
 20
-0.465140
  0
VERTEX
  8
EBENE_1
 62
   146
  6
CONTINUOUS
 10
-0.830388
 20
-0.454181
  0
VERTEX
  8
EBENE_1
 62
   146
  6
CONTINUOUS
 10
-0.836374
 20
-0.443133
  0
VERTEX
  8
EBENE_1
 62
   146
  6
CONTINUOUS
 10
-0.842218
 20
-0.431997
  0
VERTEX
  8
EBENE_1
 62
   146
  6
CONTINUOUS
 10
-0.847919
 20
-0.420775
  0
VERTEX
  8
EBENE_1
 62
   146
  6
CONTINUOUS
 10
-0.853474
 20
-0.409469
  0
VERTEX
  8
EBENE_1
 62
   146
  6
CONTINUOUS
 10
-0.858884
 20
-0.398078
  0
VERTEX
  8
EBENE_1
 62
   146
  6
CONTINUOUS
 10
-0.864147
 20
-0.386605
  0
VERTEX
  8
EBENE_1
 62
   146
  6
CONTINUOUS
 10
-0.869261
 20
-0.375050
  0
VERTEX
  8
EBENE_1
 62
   146
  6
CONTINUOUS
 10
-0.874225
 20
-0.363415
  0
VERTEX
  8
EBENE_1
 62
   146
  6
CONTINUOUS
 10
-0.879038
 20
-0.351701
  0
VERTEX
  8
EBENE_1
 62
   146
  6
CONTINUOUS
 10
-0.883700
 20
-0.339910
  0
VERTEX
  8
EBENE_1
 62
   146
  6
CONTINUOUS
 10
-0.888208
 20
-0.328041
  0
VERTEX
  8
EBENE_1
 62
   146
  6
CONTINUOUS
 10
-0.892561
 20
-0.316098
  0
VERTEX
  8
EBENE_1
 62
   146
  6
CONTINUOUS
 10
-0.896759
 20
-0.304081
  0
VERTEX
  8
EBENE_1
 62
   146
  6
CONTINUOUS
 10
-0.900800
 20
-0.291990
  0
VERTEX
  8
EBENE_1
 62
   146
  6
CONTINUOUS
 10
-0.904682
 20
-0.279829
  0
VERTEX
  8
EBENE_1
 62
   146
  6
CONTINUOUS
 10
-0.908405
 20
-0.267596
  0
VERTEX
  8
EBENE_1
 62
   146
  6
CONTINUOUS
 10
-0.911968
 20
-0.255295
  0
VERTEX
  8
EBENE_1
 62
   146
  6
CONTINUOUS
 10
-0.915368
 20
-0.242925
  0
VERTEX
  8
EBENE_1
 62
   146
  6
CONTINUOUS
 10
-0.918606
 20
-0.230489
  0
VERTEX
  8
EBENE_1
 62
   146
  6
CONTINUOUS
 10
-0.921679
 20
-0.217988
  0
VERTEX
  8
EBENE_1
 62
   146
  6
CONTINUOUS
 10
-0.924586
 20
-0.205422
  0
VERTEX
  8
EBENE_1
 62
   146
  6
CONTINUOUS
 10
-0.927327
 20
-0.192793
  0
VERTEX
  8
EBENE_1
 62
   146
  6
CONTINUOUS
 10
-0.929900
 20
-0.180102
  0
VERTEX
  8
EBENE_1
 62
   146
  6
CONTINUOUS
 10
-0.932304
 20
-0.167350
  0
VERTEX
  8
EBENE_1
 62
   146
  6
CONTINUOUS
 10
-0.934537
 20
-0.154539
  0
VERTEX
  8
EBENE_1
 62
   146
  6
CONTINUOUS
 10
-0.936599
 20
-0.141670
  0
VERTEX
  8
EBENE_1
 62
   146
  6
CONTINUOUS
 10
-0.938487
 20
-0.128744
  0
VERTEX
  8
EBENE_1
 62
   146
  6
CONTINUOUS
 10
-0.940202
 20
-0.115762
  0
VERTEX
  8
EBENE_1
 62
   146
  6
CONTINUOUS
 10
-0.941741
 20
-0.102726
  0
VERTEX
  8
EBENE_1
 62
   146
  6
CONTINUOUS
 10
-0.943104
 20
-0.089636
  0
VERTEX
  8
EBENE_1
 62
   146
  6
CONTINUOUS
 10
-0.944289
 20
-0.076494
  0
VERTEX
  8
EBENE_1
 62
   146
  6
CONTINUOUS
 10
-0.945295
 20
-0.063302
  0
VERTEX
  8
EBENE_1
 62
   146
  6
CONTINUOUS
 10
-0.946121
 20
-0.050059
  0
VERTEX
  8
EBENE_1
 62
   146
  6
CONTINUOUS
 10
-0.946766
 20
-0.036769
  0
VERTEX
  8
EBENE_1
 62
   146
  6
CONTINUOUS
 10
-0.947227
 20
-0.023431
  0
VERTEX
  8
EBENE_1
 62
   146
  6
CONTINUOUS
 10
-0.947505
 20
-0.010047
  0
VERTEX
  8
EBENE_1
 62
   146
  6
CONTINUOUS
 10
-0.947598
 20
0.003382
  0
VERTEX
  8
EBENE_1
 62
   146
  6
CONTINUOUS
 10
-0.947598
 20
0.003382
  0
VERTEX
  8
EBENE_1
 62
   146
  6
CONTINUOUS
 10
-0.947505
 20
0.016801
  0
VERTEX
  8
EBENE_1
 62
   146
  6
CONTINUOUS
 10
-0.947227
 20
0.030175
  0
VERTEX
  8
EBENE_1
 62
   146
  6
CONTINUOUS
 10
-0.946766
 20
0.043504
  0
VERTEX
  8
EBENE_1
 62
   146
  6
CONTINUOUS
 10
-0.946121
 20
0.056785
  0
VERTEX
  8
EBENE_1
 62
   146
  6
CONTINUOUS
 10
-0.945295
 20
0.070018
  0
VERTEX
  8
EBENE_1
 62
   146
  6
CONTINUOUS
 10
-0.944289
 20
0.083201
  0
VERTEX
  8
EBENE_1
 62
   146
  6
CONTINUOUS
 10
-0.943104
 20
0.096333
  0
VERTEX
  8
EBENE_1
 62
   146
  6
CONTINUOUS
 10
-0.941741
 20
0.109414
  0
VERTEX
  8
EBENE_1
 62
   146
  6
CONTINUOUS
 10
-0.940202
 20
0.122441
  0
VERTEX
  8
EBENE_1
 62
   146
  6
CONTINUOUS
 10
-0.938487
 20
0.135414
  0
VERTEX
  8
EBENE_1
 62
   146
  6
CONTINUOUS
 10
-0.936599
 20
0.148331
  0
VERTEX
  8
EBENE_1
 62
   146
  6
CONTINUOUS
 10
-0.934537
 20
0.161191
  0
VERTEX
  8
EBENE_1
 62
   146
  6
CONTINUOUS
 10
-0.932304
 20
0.173993
  0
VERTEX
  8
EBENE_1
 62
   146
  6
CONTINUOUS
 10
-0.929900
 20
0.186736
  0
VERTEX
  8
EBENE_1
 62
   146
  6
CONTINUOUS
 10
-0.927327
 20
0.199418
  0
VERTEX
  8
EBENE_1
 62
   146
  6
CONTINUOUS
 10
-0.924586
 20
0.212038
  0
VERTEX
  8
EBENE_1
 62
   146
  6
CONTINUOUS
 10
-0.921679
 20
0.224596
  0
VERTEX
  8
EBENE_1
 62
   146
  6
CONTINUOUS
 10
-0.918606
 20
0.237089
  0
VERTEX
  8
EBENE_1
 62
   146
  6
CONTINUOUS
 10
-0.915368
 20
0.249516
  0
VERTEX
  8
EBENE_1
 62
   146
  6
CONTINUOUS
 10
-0.911968
 20
0.261877
  0
VERTEX
  8
EBENE_1
 62
   146
  6
CONTINUOUS
 10
-0.908405
 20
0.274170
  0
VERTEX
  8
EBENE_1
 62
   146
  6
CONTINUOUS
 10
-0.904682
 20
0.286394
  0
VERTEX
  8
EBENE_1
 62
   146
  6
CONTINUOUS
 10
-0.900800
 20
0.298548
  0
VERTEX
  8
EBENE_1
 62
   146
  6
CONTINUOUS
 10
-0.896759
 20
0.310630
  0
VERTEX
  8
EBENE_1
 62
   146
  6
CONTINUOUS
 10
-0.892561
 20
0.322639
  0
VERTEX
  8
EBENE_1
 62
   146
  6
CONTINUOUS
 10
-0.888208
 20
0.334575
  0
VERTEX
  8
EBENE_1
 62
   146
  6
CONTINUOUS
 10
-0.883700
 20
0.346435
  0
VERTEX
  8
EBENE_1
 62
   146
  6
CONTINUOUS
 10
-0.879038
 20
0.358219
  0
VERTEX
  8
EBENE_1
 62
   146
  6
CONTINUOUS
 10
-0.874225
 20
0.369925
  0
VERTEX
  8
EBENE_1
 62
   146
  6
CONTINUOUS
 10
-0.869261
 20
0.381552
  0
VERTEX
  8
EBENE_1
 62
   146
  6
CONTINUOUS
 10
-0.864147
 20
0.393099
  0
VERTEX
  8
EBENE_1
 62
   146
  6
CONTINUOUS
 10
-0.858884
 20
0.404565
  0
VERTEX
  8
EBENE_1
 62
   146
  6
CONTINUOUS
 10
-0.853474
 20
0.415948
  0
VERTEX
  8
EBENE_1
 62
   146
  6
CONTINUOUS
 10
-0.847919
 20
0.427247
  0
VERTEX
  8
EBENE_1
 62
   146
  6
CONTINUOUS
 10
-0.842218
 20
0.438462
  0
VERTEX
  8
EBENE_1
 62
   146
  6
CONTINUOUS
 10
-0.836374
 20
0.449590
  0
VERTEX
  8
EBENE_1
 62
   146
  6
CONTINUOUS
 10
-0.830388
 20
0.460631
  0
VERTEX
  8
EBENE_1
 62
   146
  6
CONTINUOUS
 10
-0.824260
 20
0.471583
  0
VERTEX
  8
EBENE_1
 62
   146
  6
CONTINUOUS
 10
-0.817993
 20
0.482445
  0
VERTEX
  8
EBENE_1
 62
   146
  6
CONTINUOUS
 10
-0.811586
 20
0.493217
  0
VERTEX
  8
EBENE_1
 62
   146
  6
CONTINUOUS
 10
-0.805043
 20
0.503896
  0
VERTEX
  8
EBENE_1
 62
   146
  6
CONTINUOUS
 10
-0.798363
 20
0.514481
  0
VERTEX
  8
EBENE_1
 62
   146
  6
CONTINUOUS
 10
-0.791548
 20
0.524972
  0
VERTEX
  8
EBENE_1
 62
   146
  6
CONTINUOUS
 10
-0.784599
 20
0.535366
  0
VERTEX
  8
EBENE_1
 62
   146
  6
CONTINUOUS
 10
-0.777518
 20
0.545664
  0
VERTEX
  8
EBENE_1
 62
   146
  6
CONTINUOUS
 10
-0.770306
 20
0.555863
  0
VERTEX
  8
EBENE_1
 62
   146
  6
CONTINUOUS
 10
-0.762963
 20
0.565963
  0
VERTEX
  8
EBENE_1
 62
   146
  6
CONTINUOUS
 10
-0.755491
 20
0.575961
  0
VERTEX
  8
EBENE_1
 62
   146
  6
CONTINUOUS
 10
-0.747892
 20
0.585858
  0
VERTEX
  8
EBENE_1
 62
   146
  6
CONTINUOUS
 10
-0.740166
 20
0.595651
  0
VERTEX
  8
EBENE_1
 62
   146
  6
CONTINUOUS
 10
-0.732315
 20
0.605340
  0
VERTEX
  8
EBENE_1
 62
   146
  6
CONTINUOUS
 10
-0.724340
 20
0.614923
  0
VERTEX
  8
EBENE_1
 62
   146
  6
CONTINUOUS
 10
-0.716242
 20
0.624399
  0
VERTEX
  8
EBENE_1
 62
   146
  6
CONTINUOUS
 10
-0.708022
 20
0.633767
  0
VERTEX
  8
EBENE_1
 62
   146
  6
CONTINUOUS
 10
-0.699682
 20
0.643026
  0
VERTEX
  8
EBENE_1
 62
   146
  6
CONTINUOUS
 10
-0.691223
 20
0.652174
  0
VERTEX
  8
EBENE_1
 62
   146
  6
CONTINUOUS
 10
-0.682646
 20
0.661210
  0
VERTEX
  8
EBENE_1
 62
   146
  6
CONTINUOUS
 10
-0.673953
 20
0.670133
  0
VERTEX
  8
EBENE_1
 62
   146
  6
CONTINUOUS
 10
-0.665144
 20
0.678942
  0
VERTEX
  8
EBENE_1
 62
   146
  6
CONTINUOUS
 10
-0.656220
 20
0.687636
  0
VERTEX
  8
EBENE_1
 62
   146
  6
CONTINUOUS
 10
-0.647184
 20
0.696212
  0
VERTEX
  8
EBENE_1
 62
   146
  6
CONTINUOUS
 10
-0.638035
 20
0.704671
  0
VERTEX
  8
EBENE_1
 62
   146
  6
CONTINUOUS
 10
-0.628776
 20
0.713011
  0
VERTEX
  8
EBENE_1
 62
   146
  6
CONTINUOUS
 10
-0.619408
 20
0.721230
  0
VERTEX
  8
EBENE_1
 62
   146
  6
CONTINUOUS
 10
-0.609932
 20
0.729327
  0
VERTEX
  8
EBENE_1
 62
   146
  6
CONTINUOUS
 10
-0.600348
 20
0.737302
  0
VERTEX
  8
EBENE_1
 62
   146
  6
CONTINUOUS
 10
-0.590659
 20
0.745153
  0
VERTEX
  8
EBENE_1
 62
   146
  6
CONTINUOUS
 10
-0.580865
 20
0.752878
  0
VERTEX
  8
EBENE_1
 62
   146
  6
CONTINUOUS
 10
-0.570968
 20
0.760477
  0
VERTEX
  8
EBENE_1
 62
   146
  6
CONTINUOUS
 10
-0.560969
 20
0.767949
  0
VERTEX
  8
EBENE_1
 62
   146
  6
CONTINUOUS
 10
-0.550870
 20
0.775291
  0
VERTEX
  8
EBENE_1
 62
   146
  6
CONTINUOUS
 10
-0.540670
 20
0.782503
  0
VERTEX
  8
EBENE_1
 62
   146
  6
CONTINUOUS
 10
-0.530372
 20
0.789584
  0
VERTEX
  8
EBENE_1
 62
   146
  6
CONTINUOUS
 10
-0.519977
 20
0.796533
  0
VERTEX
  8
EBENE_1
 62
   146
  6
CONTINUOUS
 10
-0.509486
 20
0.803347
  0
VERTEX
  8
EBENE_1
 62
   146
  6
CONTINUOUS
 10
-0.498900
 20
0.810027
  0
VERTEX
  8
EBENE_1
 62
   146
  6
CONTINUOUS
 10
-0.488221
 20
0.816570
  0
VERTEX
  8
EBENE_1
 62
   146
  6
CONTINUOUS
 10
-0.477450
 20
0.822976
  0
VERTEX
  8
EBENE_1
 62
   146
  6
CONTINUOUS
 10
-0.466587
 20
0.829243
  0
VERTEX
  8
EBENE_1
 62
   146
  6
CONTINUOUS
 10
-0.455635
 20
0.835370
  0
VERTEX
  8
EBENE_1
 62
   146
  6
CONTINUOUS
 10
-0.444594
 20
0.841356
  0
VERTEX
  8
EBENE_1
 62
   146
  6
CONTINUOUS
 10
-0.433465
 20
0.847200
  0
VERTEX
  8
EBENE_1
 62
   146
  6
CONTINUOUS
 10
-0.422250
 20
0.852901
  0
VERTEX
  8
EBENE_1
 62
   146
  6
CONTINUOUS
 10
-0.410951
 20
0.858456
  0
VERTEX
  8
EBENE_1
 62
   146
  6
CONTINUOUS
 10
-0.399567
 20
0.863865
  0
VERTEX
  8
EBENE_1
 62
   146
  6
CONTINUOUS
 10
-0.388101
 20
0.869128
  0
VERTEX
  8
EBENE_1
 62
   146
  6
CONTINUOUS
 10
-0.376554
 20
0.874241
  0
VERTEX
  8
EBENE_1
 62
   146
  6
CONTINUOUS
 10
-0.364927
 20
0.879206
  0
VERTEX
  8
EBENE_1
 62
   146
  6
CONTINUOUS
 10
-0.353220
 20
0.884019
  0
VERTEX
  8
EBENE_1
 62
   146
  6
CONTINUOUS
 10
-0.341436
 20
0.888680
  0
VERTEX
  8
EBENE_1
 62
   146
  6
CONTINUOUS
 10
-0.329576
 20
0.893188
  0
VERTEX
  8
EBENE_1
 62
   146
  6
CONTINUOUS
 10
-0.317641
 20
0.897541
  0
VERTEX
  8
EBENE_1
 62
   146
  6
CONTINUOUS
 10
-0.305631
 20
0.901738
  0
VERTEX
  8
EBENE_1
 62
   146
  6
CONTINUOUS
 10
-0.293549
 20
0.905779
  0
VERTEX
  8
EBENE_1
 62
   146
  6
CONTINUOUS
 10
-0.281395
 20
0.909661
  0
VERTEX
  8
EBENE_1
 62
   146
  6
CONTINUOUS
 10
-0.269171
 20
0.913384
  0
VERTEX
  8
EBENE_1
 62
   146
  6
CONTINUOUS
 10
-0.256878
 20
0.916946
  0
VERTEX
  8
EBENE_1
 62
   146
  6
CONTINUOUS
 10
-0.244517
 20
0.920347
  0
VERTEX
  8
EBENE_1
 62
   146
  6
CONTINUOUS
 10
-0.232089
 20
0.923584
  0
VERTEX
  8
EBENE_1
 62
   146
  6
CONTINUOUS
 10
-0.219596
 20
0.926657
  0
VERTEX
  8
EBENE_1
 62
   146
  6
CONTINUOUS
 10
-0.207038
 20
0.929564
  0
VERTEX
  8
EBENE_1
 62
   146
  6
CONTINUOUS
 10
-0.194418
 20
0.932305
  0
VERTEX
  8
EBENE_1
 62
   146
  6
CONTINUOUS
 10
-0.181736
 20
0.934878
  0
VERTEX
  8
EBENE_1
 62
   146
  6
CONTINUOUS
 10
-0.168993
 20
0.937281
  0
VERTEX
  8
EBENE_1
 62
   146
  6
CONTINUOUS
 10
-0.156191
 20
0.939514
  0
VERTEX
  8
EBENE_1
 62
   146
  6
CONTINUOUS
 10
-0.143331
 20
0.941576
  0
VERTEX
  8
EBENE_1
 62
   146
  6
CONTINUOUS
 10
-0.130414
 20
0.943464
  0
VERTEX
  8
EBENE_1
 62
   146
  6
CONTINUOUS
 10
-0.117441
 20
0.945179
  0
VERTEX
  8
EBENE_1
 62
   146
  6
CONTINUOUS
 10
-0.104414
 20
0.946718
  0
VERTEX
  8
EBENE_1
 62
   146
  6
CONTINUOUS
 10
-0.091333
 20
0.948081
  0
VERTEX
  8
EBENE_1
 62
   146
  6
CONTINUOUS
 10
-0.078201
 20
0.949266
  0
VERTEX
  8
EBENE_1
 62
   146
  6
CONTINUOUS
 10
-0.065017
 20
0.950272
  0
VERTEX
  8
EBENE_1
 62
   146
  6
CONTINUOUS
 10
-0.051785
 20
0.951098
  0
VERTEX
  8
EBENE_1
 62
   146
  6
CONTINUOUS
 10
-0.038503
 20
0.951742
  0
VERTEX
  8
EBENE_1
 62
   146
  6
CONTINUOUS
 10
-0.025175
 20
0.952204
  0
VERTEX
  8
EBENE_1
 62
   146
  6
CONTINUOUS
 10
-0.011801
 20
0.952482
  0
VERTEX
  8
EBENE_1
 62
   146
  6
CONTINUOUS
 10
0.001618
 20
0.952575
  0
VERTEX
  8
EBENE_1
 62
   146
  6
CONTINUOUS
 10
0.001618
 20
0.952575
  0
VERTEX
  8
EBENE_1
 62
   146
  6
CONTINUOUS
 10
0.015040
 20
0.952482
  0
VERTEX
  8
EBENE_1
 62
   146
  6
CONTINUOUS
 10
0.028417
 20
0.952204
  0
VERTEX
  8
EBENE_1
 62
   146
  6
CONTINUOUS
 10
0.041748
 20
0.951742
  0
VERTEX
  8
EBENE_1
 62
   146
  6
CONTINUOUS
 10
0.055032
 20
0.951098
  0
VERTEX
  8
EBENE_1
 62
   146
  6
CONTINUOUS
 10
0.068268
 20
0.950272
  0
VERTEX
  8
EBENE_1
 62
   146
  6
CONTINUOUS
 10
0.081453
 20
0.949266
  0
VERTEX
  8
EBENE_1
 62
   146
  6
CONTINUOUS
 10
0.094589
 20
0.948081
  0
VERTEX
  8
EBENE_1
 62
   146
  6
CONTINUOUS
 10
0.107672
 20
0.946718
  0
VERTEX
  8
EBENE_1
 62
   146
  6
CONTINUOUS
 10
0.120701
 20
0.945179
  0
VERTEX
  8
EBENE_1
 62
   146
  6
CONTINUOUS
 10
0.133677
 20
0.943464
  0
VERTEX
  8
EBENE_1
 62
   146
  6
CONTINUOUS
 10
0.146596
 20
0.941576
  0
VERTEX
  8
EBENE_1
 62
   146
  6
CONTINUOUS
 10
0.159459
 20
0.939514
  0
VERTEX
  8
EBENE_1
 62
   146
  6
CONTINUOUS
 10
0.172263
 20
0.937281
  0
VERTEX
  8
EBENE_1
 62
   146
  6
CONTINUOUS
 10
0.185008
 20
0.934878
  0
VERTEX
  8
EBENE_1
 62
   146
  6
CONTINUOUS
 10
0.197692
 20
0.932305
  0
VERTEX
  8
EBENE_1
 62
   146
  6
CONTINUOUS
 10
0.210315
 20
0.929564
  0
VERTEX
  8
EBENE_1
 62
   146
  6
CONTINUOUS
 10
0.222875
 20
0.926657
  0
VERTEX
  8
EBENE_1
 62
   146
  6
CONTINUOUS
 10
0.235370
 20
0.923584
  0
VERTEX
  8
EBENE_1
 62
   146
  6
CONTINUOUS
 10
0.247800
 20
0.920347
  0
VERTEX
  8
EBENE_1
 62
   146
  6
CONTINUOUS
 10
0.260163
 20
0.916946
  0
VERTEX
  8
EBENE_1
 62
   146
  6
CONTINUOUS
 10
0.272458
 20
0.913384
  0
VERTEX
  8
EBENE_1
 62
   146
  6
CONTINUOUS
 10
0.284684
 20
0.909661
  0
VERTEX
  8
EBENE_1
 62
   146
  6
CONTINUOUS
 10
0.296840
 20
0.905779
  0
VERTEX
  8
EBENE_1
 62
   146
  6
CONTINUOUS
 10
0.308924
 20
0.901738
  0
VERTEX
  8
EBENE_1
 62
   146
  6
CONTINUOUS
 10
0.320935
 20
0.897541
  0
VERTEX
  8
EBENE_1
 62
   146
  6
CONTINUOUS
 10
0.332872
 20
0.893188
  0
VERTEX
  8
EBENE_1
 62
   146
  6
CONTINUOUS
 10
0.344734
 20
0.888680
  0
VERTEX
  8
EBENE_1
 62
   146
  6
CONTINUOUS
 10
0.356520
 20
0.884019
  0
VERTEX
  8
EBENE_1
 62
   146
  6
CONTINUOUS
 10
0.368228
 20
0.879206
  0
VERTEX
  8
EBENE_1
 62
   146
  6
CONTINUOUS
 10
0.379857
 20
0.874241
  0
VERTEX
  8
EBENE_1
 62
   146
  6
CONTINUOUS
 10
0.391406
 20
0.869128
  0
VERTEX
  8
EBENE_1
 62
   146
  6
CONTINUOUS
 10
0.402873
 20
0.863865
  0
VERTEX
  8
EBENE_1
 62
   146
  6
CONTINUOUS
 10
0.414258
 20
0.858456
  0
VERTEX
  8
EBENE_1
 62
   146
  6
CONTINUOUS
 10
0.425559
 20
0.852901
  0
VERTEX
  8
EBENE_1
 62
   146
  6
CONTINUOUS
 10
0.436775
 20
0.847200
  0
VERTEX
  8
EBENE_1
 62
   146
  6
CONTINUOUS
 10
0.447905
 20
0.841356
  0
VERTEX
  8
EBENE_1
 62
   146
  6
CONTINUOUS
 10
0.458948
 20
0.835370
  0
VERTEX
  8
EBENE_1
 62
   146
  6
CONTINUOUS
 10
0.469901
 20
0.829243
  0
VERTEX
  8
EBENE_1
 62
   146
  6
CONTINUOUS
 10
0.480765
 20
0.822976
  0
VERTEX
  8
EBENE_1
 62
   146
  6
CONTINUOUS
 10
0.491538
 20
0.816570
  0
VERTEX
  8
EBENE_1
 62
   146
  6
CONTINUOUS
 10
0.502218
 20
0.810027
  0
VERTEX
  8
EBENE_1
 62
   146
  6
CONTINUOUS
 10
0.512805
 20
0.803347
  0
VERTEX
  8
EBENE_1
 62
   146
  6
CONTINUOUS
 10
0.523298
 20
0.796533
  0
VERTEX
  8
EBENE_1
 62
   146
  6
CONTINUOUS
 10
0.533694
 20
0.789584
  0
VERTEX
  8
EBENE_1
 62
   146
  6
CONTINUOUS
 10
0.543993
 20
0.782503
  0
VERTEX
  8
EBENE_1
 62
   146
  6
CONTINUOUS
 10
0.554193
 20
0.775291
  0
VERTEX
  8
EBENE_1
 62
   146
  6
CONTINUOUS
 10
0.564294
 20
0.767949
  0
VERTEX
  8
EBENE_1
 62
   146
  6
CONTINUOUS
 10
0.574294
 20
0.760477
  0
VERTEX
  8
EBENE_1
 62
   146
  6
CONTINUOUS
 10
0.584192
 20
0.752878
  0
VERTEX
  8
EBENE_1
 62
   146
  6
CONTINUOUS
 10
0.593986
 20
0.745153
  0
VERTEX
  8
EBENE_1
 62
   146
  6
CONTINUOUS
 10
0.603676
 20
0.737302
  0
VERTEX
  8
EBENE_1
 62
   146
  6
CONTINUOUS
 10
0.613261
 20
0.729327
  0
VERTEX
  8
EBENE_1
 62
   146
  6
CONTINUOUS
 10
0.622738
 20
0.721230
  0
VERTEX
  8
EBENE_1
 62
   146
  6
CONTINUOUS
 10
0.632107
 20
0.713011
  0
VERTEX
  8
EBENE_1
 62
   146
  6
CONTINUOUS
 10
0.641367
 20
0.704671
  0
VERTEX
  8
EBENE_1
 62
   146
  6
CONTINUOUS
 10
0.650516
 20
0.696212
  0
VERTEX
  8
EBENE_1
 62
   146
  6
CONTINUOUS
 10
0.659553
 20
0.687636
  0
VERTEX
  8
EBENE_1
 62
   146
  6
CONTINUOUS
 10
0.668477
 20
0.678942
  0
VERTEX
  8
EBENE_1
 62
   146
  6
CONTINUOUS
 10
0.677287
 20
0.670133
  0
VERTEX
  8
EBENE_1
 62
   146
  6
CONTINUOUS
 10
0.685982
 20
0.661210
  0
VERTEX
  8
EBENE_1
 62
   146
  6
CONTINUOUS
 10
0.694559
 20
0.652174
  0
VERTEX
  8
EBENE_1
 62
   146
  6
CONTINUOUS
 10
0.703019
 20
0.643026
  0
VERTEX
  8
EBENE_1
 62
   146
  6
CONTINUOUS
 10
0.711359
 20
0.633767
  0
VERTEX
  8
EBENE_1
 62
   146
  6
CONTINUOUS
 10
0.719579
 20
0.624399
  0
VERTEX
  8
EBENE_1
 62
   146
  6
CONTINUOUS
 10
0.727678
 20
0.614923
  0
VERTEX
  8
EBENE_1
 62
   146
  6
CONTINUOUS
 10
0.735654
 20
0.605340
  0
VERTEX
  8
EBENE_1
 62
   146
  6
CONTINUOUS
 10
0.743505
 20
0.595651
  0
VERTEX
  8
EBENE_1
 62
   146
  6
CONTINUOUS
 10
0.751231
 20
0.585858
  0
VERTEX
  8
EBENE_1
 62
   146
  6
CONTINUOUS
 10
0.758831
 20
0.575961
  0
VERTEX
  8
EBENE_1
 62
   146
  6
CONTINUOUS
 10
0.766303
 20
0.565963
  0
VERTEX
  8
EBENE_1
 62
   146
  6
CONTINUOUS
 10
0.773646
 20
0.555863
  0
VERTEX
  8
EBENE_1
 62
   146
  6
CONTINUOUS
 10
0.780859
 20
0.545664
  0
VERTEX
  8
EBENE_1
 62
   146
  6
CONTINUOUS
 10
0.787941
 20
0.535366
  0
VERTEX
  8
EBENE_1
 62
   146
  6
CONTINUOUS
 10
0.794890
 20
0.524972
  0
VERTEX
  8
EBENE_1
 62
   146
  6
CONTINUOUS
 10
0.801705
 20
0.514481
  0
VERTEX
  8
EBENE_1
 62
   146
  6
CONTINUOUS
 10
0.808385
 20
0.503896
  0
VERTEX
  8
EBENE_1
 62
   146
  6
CONTINUOUS
 10
0.814929
 20
0.493217
  0
VERTEX
  8
EBENE_1
 62
   146
  6
CONTINUOUS
 10
0.821336
 20
0.482445
  0
VERTEX
  8
EBENE_1
 62
   146
  6
CONTINUOUS
 10
0.827604
 20
0.471583
  0
VERTEX
  8
EBENE_1
 62
   146
  6
CONTINUOUS
 10
0.833731
 20
0.460631
  0
VERTEX
  8
EBENE_1
 62
   146
  6
CONTINUOUS
 10
0.839718
 20
0.449590
  0
VERTEX
  8
EBENE_1
 62
   146
  6
CONTINUOUS
 10
0.845562
 20
0.438462
  0
VERTEX
  8
EBENE_1
 62
   146
  6
CONTINUOUS
 10
0.851263
 20
0.427247
  0
VERTEX
  8
EBENE_1
 62
   146
  6
CONTINUOUS
 10
0.856819
 20
0.415948
  0
VERTEX
  8
EBENE_1
 62
   146
  6
CONTINUOUS
 10
0.862229
 20
0.404565
  0
VERTEX
  8
EBENE_1
 62
   146
  6
CONTINUOUS
 10
0.867492
 20
0.393099
  0
VERTEX
  8
EBENE_1
 62
   146
  6
CONTINUOUS
 10
0.872606
 20
0.381552
  0
VERTEX
  8
EBENE_1
 62
   146
  6
CONTINUOUS
 10
0.877570
 20
0.369925
  0
VERTEX
  8
EBENE_1
 62
   146
  6
CONTINUOUS
 10
0.882384
 20
0.358219
  0
VERTEX
  8
EBENE_1
 62
   146
  6
CONTINUOUS
 10
0.887045
 20
0.346435
  0
VERTEX
  8
EBENE_1
 62
   146
  6
CONTINUOUS
 10
0.891554
 20
0.334575
  0
VERTEX
  8
EBENE_1
 62
   146
  6
CONTINUOUS
 10
0.895907
 20
0.322639
  0
VERTEX
  8
EBENE_1
 62
   146
  6
CONTINUOUS
 10
0.900105
 20
0.310630
  0
VERTEX
  8
EBENE_1
 62
   146
  6
CONTINUOUS
 10
0.904146
 20
0.298548
  0
VERTEX
  8
EBENE_1
 62
   146
  6
CONTINUOUS
 10
0.908028
 20
0.286394
  0
VERTEX
  8
EBENE_1
 62
   146
  6
CONTINUOUS
 10
0.911752
 20
0.274170
  0
VERTEX
  8
EBENE_1
 62
   146
  6
CONTINUOUS
 10
0.915314
 20
0.261877
  0
VERTEX
  8
EBENE_1
 62
   146
  6
CONTINUOUS
 10
0.918715
 20
0.249516
  0
VERTEX
  8
EBENE_1
 62
   146
  6
CONTINUOUS
 10
0.921952
 20
0.237089
  0
VERTEX
  8
EBENE_1
 62
   146
  6
CONTINUOUS
 10
0.925025
 20
0.224596
  0
VERTEX
  8
EBENE_1
 62
   146
  6
CONTINUOUS
 10
0.927933
 20
0.212038
  0
VERTEX
  8
EBENE_1
 62
   146
  6
CONTINUOUS
 10
0.930674
 20
0.199418
  0
VERTEX
  8
EBENE_1
 62
   146
  6
CONTINUOUS
 10
0.933247
 20
0.186736
  0
VERTEX
  8
EBENE_1
 62
   146
  6
CONTINUOUS
 10
0.935650
 20
0.173993
  0
VERTEX
  8
EBENE_1
 62
   146
  6
CONTINUOUS
 10
0.937883
 20
0.161191
  0
VERTEX
  8
EBENE_1
 62
   146
  6
CONTINUOUS
 10
0.939945
 20
0.148331
  0
VERTEX
  8
EBENE_1
 62
   146
  6
CONTINUOUS
 10
0.941834
 20
0.135414
  0
VERTEX
  8
EBENE_1
 62
   146
  6
CONTINUOUS
 10
0.943548
 20
0.122441
  0
VERTEX
  8
EBENE_1
 62
   146
  6
CONTINUOUS
 10
0.945088
 20
0.109414
  0
VERTEX
  8
EBENE_1
 62
   146
  6
CONTINUOUS
 10
0.946451
 20
0.096333
  0
VERTEX
  8
EBENE_1
 62
   146
  6
CONTINUOUS
 10
0.947636
 20
0.083201
  0
VERTEX
  8
EBENE_1
 62
   146
  6
CONTINUOUS
 10
0.948642
 20
0.070018
  0
VERTEX
  8
EBENE_1
 62
   146
  6
CONTINUOUS
 10
0.949468
 20
0.056785
  0
VERTEX
  8
EBENE_1
 62
   146
  6
CONTINUOUS
 10
0.950112
 20
0.043504
  0
VERTEX
  8
EBENE_1
 62
   146
  6
CONTINUOUS
 10
0.950574
 20
0.030175
  0
VERTEX
  8
EBENE_1
 62
   146
  6
CONTINUOUS
 10
0.950852
 20
0.016801
  0
VERTEX
  8
EBENE_1
 62
   146
  6
CONTINUOUS
 10
0.950945
 20
0.003382
  0
SEQEND
  8
0
  0
POLYLINE
  8
EBENE_1
 62
   146
  6
CONTINUOUS
 66
     1
 40
0.047244
 41
0.047244
  0
VERTEX
  8
EBENE_1
 62
   146
  6
CONTINUOUS
 10
0.950945
 20
0.003382
  0
VERTEX
  8
EBENE_1
 62
   146
  6
CONTINUOUS
 10
0.950852
 20
-0.010047
  0
VERTEX
  8
EBENE_1
 62
   146
  6
CONTINUOUS
 10
0.950574
 20
-0.023431
  0
VERTEX
  8
EBENE_1
 62
   146
  6
CONTINUOUS
 10
0.950112
 20
-0.036769
  0
VERTEX
  8
EBENE_1
 62
   146
  6
CONTINUOUS
 10
0.949468
 20
-0.050059
  0
VERTEX
  8
EBENE_1
 62
   146
  6
CONTINUOUS
 10
0.948642
 20
-0.063302
  0
VERTEX
  8
EBENE_1
 62
   146
  6
CONTINUOUS
 10
0.947636
 20
-0.076494
  0
VERTEX
  8
EBENE_1
 62
   146
  6
CONTINUOUS
 10
0.946451
 20
-0.089636
  0
VERTEX
  8
EBENE_1
 62
   146
  6
CONTINUOUS
 10
0.945088
 20
-0.102726
  0
VERTEX
  8
EBENE_1
 62
   146
  6
CONTINUOUS
 10
0.943548
 20
-0.115762
  0
VERTEX
  8
EBENE_1
 62
   146
  6
CONTINUOUS
 10
0.941834
 20
-0.128744
  0
VERTEX
  8
EBENE_1
 62
   146
  6
CONTINUOUS
 10
0.939945
 20
-0.141670
  0
VERTEX
  8
EBENE_1
 62
   146
  6
CONTINUOUS
 10
0.937883
 20
-0.154539
  0
VERTEX
  8
EBENE_1
 62
   146
  6
CONTINUOUS
 10
0.935650
 20
-0.167350
  0
VERTEX
  8
EBENE_1
 62
   146
  6
CONTINUOUS
 10
0.933247
 20
-0.180102
  0
VERTEX
  8
EBENE_1
 62
   146
  6
CONTINUOUS
 10
0.930674
 20
-0.192793
  0
VERTEX
  8
EBENE_1
 62
   146
  6
CONTINUOUS
 10
0.927933
 20
-0.205422
  0
VERTEX
  8
EBENE_1
 62
   146
  6
CONTINUOUS
 10
0.925025
 20
-0.217988
  0
VERTEX
  8
EBENE_1
 62
   146
  6
CONTINUOUS
 10
0.921952
 20
-0.230489
  0
VERTEX
  8
EBENE_1
 62
   146
  6
CONTINUOUS
 10
0.918715
 20
-0.242925
  0
VERTEX
  8
EBENE_1
 62
   146
  6
CONTINUOUS
 10
0.915314
 20
-0.255295
  0
VERTEX
  8
EBENE_1
 62
   146
  6
CONTINUOUS
 10
0.911752
 20
-0.267596
  0
VERTEX
  8
EBENE_1
 62
   146
  6
CONTINUOUS
 10
0.908028
 20
-0.279829
  0
VERTEX
  8
EBENE_1
 62
   146
  6
CONTINUOUS
 10
0.904146
 20
-0.291990
  0
VERTEX
  8
EBENE_1
 62
   146
  6
CONTINUOUS
 10
0.900105
 20
-0.304081
  0
VERTEX
  8
EBENE_1
 62
   146
  6
CONTINUOUS
 10
0.895907
 20
-0.316098
  0
VERTEX
  8
EBENE_1
 62
   146
  6
CONTINUOUS
 10
0.891554
 20
-0.328041
  0
VERTEX
  8
EBENE_1
 62
   146
  6
CONTINUOUS
 10
0.887045
 20
-0.339910
  0
VERTEX
  8
EBENE_1
 62
   146
  6
CONTINUOUS
 10
0.882384
 20
-0.351701
  0
VERTEX
  8
EBENE_1
 62
   146
  6
CONTINUOUS
 10
0.877570
 20
-0.363415
  0
VERTEX
  8
EBENE_1
 62
   146
  6
CONTINUOUS
 10
0.872606
 20
-0.375050
  0
VERTEX
  8
EBENE_1
 62
   146
  6
CONTINUOUS
 10
0.867492
 20
-0.386605
  0
VERTEX
  8
EBENE_1
 62
   146
  6
CONTINUOUS
 10
0.862229
 20
-0.398078
  0
VERTEX
  8
EBENE_1
 62
   146
  6
CONTINUOUS
 10
0.856819
 20
-0.409469
  0
VERTEX
  8
EBENE_1
 62
   146
  6
CONTINUOUS
 10
0.851263
 20
-0.420775
  0
VERTEX
  8
EBENE_1
 62
   146
  6
CONTINUOUS
 10
0.845562
 20
-0.431997
  0
VERTEX
  8
EBENE_1
 62
   146
  6
CONTINUOUS
 10
0.839718
 20
-0.443133
  0
VERTEX
  8
EBENE_1
 62
   146
  6
CONTINUOUS
 10
0.833731
 20
-0.454181
  0
VERTEX
  8
EBENE_1
 62
   146
  6
CONTINUOUS
 10
0.827604
 20
-0.465140
  0
VERTEX
  8
EBENE_1
 62
   146
  6
CONTINUOUS
 10
0.821336
 20
-0.476010
  0
VERTEX
  8
EBENE_1
 62
   146
  6
CONTINUOUS
 10
0.814929
 20
-0.486788
  0
VERTEX
  8
EBENE_1
 62
   146
  6
CONTINUOUS
 10
0.808385
 20
-0.497474
  0
VERTEX
  8
EBENE_1
 62
   146
  6
CONTINUOUS
 10
0.801705
 20
-0.508066
  0
VERTEX
  8
EBENE_1
 62
   146
  6
CONTINUOUS
 10
0.794890
 20
-0.518564
  0
VERTEX
  8
EBENE_1
 62
   146
  6
CONTINUOUS
 10
0.787941
 20
-0.528965
  0
VERTEX
  8
EBENE_1
 62
   146
  6
CONTINUOUS
 10
0.780859
 20
-0.539269
  0
VERTEX
  8
EBENE_1
 62
   146
  6
CONTINUOUS
 10
0.773646
 20
-0.549475
  0
VERTEX
  8
EBENE_1
 62
   146
  6
CONTINUOUS
 10
0.766303
 20
-0.559581
  0
VERTEX
  8
EBENE_1
 62
   146
  6
CONTINUOUS
 10
0.758831
 20
-0.569586
  0
VERTEX
  8
EBENE_1
 62
   146
  6
CONTINUOUS
 10
0.751231
 20
-0.579489
  0
VERTEX
  8
EBENE_1
 62
   146
  6
CONTINUOUS
 10
0.743505
 20
-0.589289
  0
VERTEX
  8
EBENE_1
 62
   146
  6
CONTINUOUS
 10
0.735654
 20
-0.598984
  0
VERTEX
  8
EBENE_1
 62
   146
  6
CONTINUOUS
 10
0.727678
 20
-0.608573
  0
VERTEX
  8
EBENE_1
 62
   146
  6
CONTINUOUS
 10
0.719579
 20
-0.618055
  0
VERTEX
  8
EBENE_1
 62
   146
  6
CONTINUOUS
 10
0.711359
 20
-0.627429
  0
VERTEX
  8
EBENE_1
 62
   146
  6
CONTINUOUS
 10
0.703019
 20
-0.636693
  0
VERTEX
  8
EBENE_1
 62
   146
  6
CONTINUOUS
 10
0.694559
 20
-0.645847
  0
VERTEX
  8
EBENE_1
 62
   146
  6
CONTINUOUS
 10
0.685982
 20
-0.654889
  0
VERTEX
  8
EBENE_1
 62
   146
  6
CONTINUOUS
 10
0.677287
 20
-0.663818
  0
VERTEX
  8
EBENE_1
 62
   146
  6
CONTINUOUS
 10
0.668477
 20
-0.672632
  0
VERTEX
  8
EBENE_1
 62
   146
  6
CONTINUOUS
 10
0.659553
 20
-0.681331
  0
VERTEX
  8
EBENE_1
 62
   146
  6
CONTINUOUS
 10
0.650516
 20
-0.689913
  0
VERTEX
  8
EBENE_1
 62
   146
  6
CONTINUOUS
 10
0.641367
 20
-0.698377
  0
VERTEX
  8
EBENE_1
 62
   146
  6
CONTINUOUS
 10
0.632107
 20
-0.706721
  0
VERTEX
  8
EBENE_1
 62
   146
  6
CONTINUOUS
 10
0.622738
 20
-0.714946
  0
VERTEX
  8
EBENE_1
 62
   146
  6
CONTINUOUS
 10
0.613261
 20
-0.723048
  0
VERTEX
  8
EBENE_1
 62
   146
  6
CONTINUOUS
 10
0.603676
 20
-0.731028
  0
VERTEX
  8
EBENE_1
 62
   146
  6
CONTINUOUS
 10
0.593986
 20
-0.738884
  0
VERTEX
  8
EBENE_1
 62
   146
  6
CONTINUOUS
 10
0.584192
 20
-0.746614
  0
VERTEX
  8
EBENE_1
 62
   146
  6
CONTINUOUS
 10
0.574294
 20
-0.754218
  0
VERTEX
  8
EBENE_1
 62
   146
  6
CONTINUOUS
 10
0.564294
 20
-0.761693
  0
VERTEX
  8
EBENE_1
 62
   146
  6
CONTINUOUS
 10
0.554193
 20
-0.769040
  0
VERTEX
  8
EBENE_1
 62
   146
  6
CONTINUOUS
 10
0.543993
 20
-0.776257
  0
VERTEX
  8
EBENE_1
 62
   146
  6
CONTINUOUS
 10
0.533694
 20
-0.783342
  0
VERTEX
  8
EBENE_1
 62
   146
  6
CONTINUOUS
 10
0.523298
 20
-0.790295
  0
VERTEX
  8
EBENE_1
 62
   146
  6
CONTINUOUS
 10
0.512805
 20
-0.797114
  0
VERTEX
  8
EBENE_1
 62
   146
  6
CONTINUOUS
 10
0.502218
 20
-0.803797
  0
VERTEX
  8
EBENE_1
 62
   146
  6
CONTINUOUS
 10
0.491538
 20
-0.810344
  0
VERTEX
  8
EBENE_1
 62
   146
  6
CONTINUOUS
 10
0.480765
 20
-0.816754
  0
VERTEX
  8
EBENE_1
 62
   146
  6
CONTINUOUS
 10
0.469901
 20
-0.823025
  0
VERTEX
  8
EBENE_1
 62
   146
  6
CONTINUOUS
 10
0.458948
 20
-0.829156
  0
VERTEX
  8
EBENE_1
 62
   146
  6
CONTINUOUS
 10
0.447905
 20
-0.835146
  0
VERTEX
  8
EBENE_1
 62
   146
  6
CONTINUOUS
 10
0.436775
 20
-0.840993
  0
VERTEX
  8
EBENE_1
 62
   146
  6
CONTINUOUS
 10
0.425559
 20
-0.846697
  0
VERTEX
  8
EBENE_1
 62
   146
  6
CONTINUOUS
 10
0.414258
 20
-0.852255
  0
VERTEX
  8
EBENE_1
 62
   146
  6
CONTINUOUS
 10
0.402873
 20
-0.857668
  0
VERTEX
  8
EBENE_1
 62
   146
  6
CONTINUOUS
 10
0.391406
 20
-0.862933
  0
VERTEX
  8
EBENE_1
 62
   146
  6
CONTINUOUS
 10
0.379857
 20
-0.868050
  0
VERTEX
  8
EBENE_1
 62
   146
  6
CONTINUOUS
 10
0.368228
 20
-0.873017
  0
VERTEX
  8
EBENE_1
 62
   146
  6
CONTINUOUS
 10
0.356520
 20
-0.877833
  0
VERTEX
  8
EBENE_1
 62
   146
  6
CONTINUOUS
 10
0.344734
 20
-0.882497
  0
VERTEX
  8
EBENE_1
 62
   146
  6
CONTINUOUS
 10
0.332872
 20
-0.887008
  0
VERTEX
  8
EBENE_1
 62
   146
  6
CONTINUOUS
 10
0.320935
 20
-0.891363
  0
VERTEX
  8
EBENE_1
 62
   146
  6
CONTINUOUS
 10
0.308924
 20
-0.895563
  0
VERTEX
  8
EBENE_1
 62
   146
  6
CONTINUOUS
 10
0.296840
 20
-0.899606
  0
VERTEX
  8
EBENE_1
 62
   146
  6
CONTINUOUS
 10
0.284684
 20
-0.903491
  0
VERTEX
  8
EBENE_1
 62
   146
  6
CONTINUOUS
 10
0.272458
 20
-0.907216
  0
VERTEX
  8
EBENE_1
 62
   146
  6
CONTINUOUS
 10
0.260163
 20
-0.910780
  0
VERTEX
  8
EBENE_1
 62
   146
  6
CONTINUOUS
 10
0.247800
 20
-0.914182
  0
VERTEX
  8
EBENE_1
 62
   146
  6
CONTINUOUS
 10
0.235370
 20
-0.917422
  0
VERTEX
  8
EBENE_1
 62
   146
  6
CONTINUOUS
 10
0.222875
 20
-0.920496
  0
VERTEX
  8
EBENE_1
 62
   146
  6
CONTINUOUS
 10
0.210315
 20
-0.923405
  0
VERTEX
  8
EBENE_1
 62
   146
  6
CONTINUOUS
 10
0.197692
 20
-0.926148
  0
VERTEX
  8
EBENE_1
 62
   146
  6
CONTINUOUS
 10
0.185008
 20
-0.928722
  0
VERTEX
  8
EBENE_1
 62
   146
  6
CONTINUOUS
 10
0.172263
 20
-0.931127
  0
VERTEX
  8
EBENE_1
 62
   146
  6
CONTINUOUS
 10
0.159459
 20
-0.933361
  0
VERTEX
  8
EBENE_1
 62
   146
  6
CONTINUOUS
 10
0.146596
 20
-0.935424
  0
VERTEX
  8
EBENE_1
 62
   146
  6
CONTINUOUS
 10
0.133677
 20
-0.937313
  0
VERTEX
  8
EBENE_1
 62
   146
  6
CONTINUOUS
 10
0.120701
 20
-0.939029
  0
VERTEX
  8
EBENE_1
 62
   146
  6
CONTINUOUS
 10
0.107672
 20
-0.940569
  0
VERTEX
  8
EBENE_1
 62
   146
  6
CONTINUOUS
 10
0.094589
 20
-0.941933
  0
VERTEX
  8
EBENE_1
 62
   146
  6
CONTINUOUS
 10
0.081453
 20
-0.943118
  0
VERTEX
  8
EBENE_1
 62
   146
  6
CONTINUOUS
 10
0.068268
 20
-0.944125
  0
VERTEX
  8
EBENE_1
 62
   146
  6
CONTINUOUS
 10
0.055032
 20
-0.944951
  0
VERTEX
  8
EBENE_1
 62
   146
  6
CONTINUOUS
 10
0.041748
 20
-0.945596
  0
VERTEX
  8
EBENE_1
 62
   146
  6
CONTINUOUS
 10
0.028417
 20
-0.946058
  0
VERTEX
  8
EBENE_1
 62
   146
  6
CONTINUOUS
 10
0.015040
 20
-0.946336
  0
VERTEX
  8
EBENE_1
 62
   146
  6
CONTINUOUS
 10
0.001618
 20
-0.946429
  0
SEQEND
  8
0
  0
POLYLINE
  8
EBENE_1
 62
   146
  6
CONTINUOUS
 66
     1
 40
0.047244
 41
0.047244
  0
VERTEX
  8
EBENE_1
 62
   146
  6
CONTINUOUS
 10
0.001618
 20
-0.946429
  0
VERTEX
  8
EBENE_1
 62
   146
  6
CONTINUOUS
 10
-0.011801
 20
-0.946336
  0
VERTEX
  8
EBENE_1
 62
   146
  6
CONTINUOUS
 10
-0.025175
 20
-0.946058
  0
VERTEX
  8
EBENE_1
 62
   146
  6
CONTINUOUS
 10
-0.038503
 20
-0.945596
  0
VERTEX
  8
EBENE_1
 62
   146
  6
CONTINUOUS
 10
-0.051785
 20
-0.944951
  0
VERTEX
  8
EBENE_1
 62
   146
  6
CONTINUOUS
 10
-0.065017
 20
-0.944125
  0
VERTEX
  8
EBENE_1
 62
   146
  6
CONTINUOUS
 10
-0.078201
 20
-0.943118
  0
VERTEX
  8
EBENE_1
 62
   146
  6
CONTINUOUS
 10
-0.091333
 20
-0.941933
  0
VERTEX
  8
EBENE_1
 62
   146
  6
CONTINUOUS
 10
-0.104414
 20
-0.940569
  0
VERTEX
  8
EBENE_1
 62
   146
  6
CONTINUOUS
 10
-0.117441
 20
-0.939029
  0
VERTEX
  8
EBENE_1
 62
   146
  6
CONTINUOUS
 10
-0.130414
 20
-0.937313
  0
VERTEX
  8
EBENE_1
 62
   146
  6
CONTINUOUS
 10
-0.143331
 20
-0.935424
  0
VERTEX
  8
EBENE_1
 62
   146
  6
CONTINUOUS
 10
-0.156191
 20
-0.933361
  0
VERTEX
  8
EBENE_1
 62
   146
  6
CONTINUOUS
 10
-0.168993
 20
-0.931127
  0
VERTEX
  8
EBENE_1
 62
   146
  6
CONTINUOUS
 10
-0.181736
 20
-0.928722
  0
VERTEX
  8
EBENE_1
 62
   146
  6
CONTINUOUS
 10
-0.194418
 20
-0.926148
  0
VERTEX
  8
EBENE_1
 62
   146
  6
CONTINUOUS
 10
-0.207038
 20
-0.923405
  0
VERTEX
  8
EBENE_1
 62
   146
  6
CONTINUOUS
 10
-0.219596
 20
-0.920496
  0
VERTEX
  8
EBENE_1
 62
   146
  6
CONTINUOUS
 10
-0.232089
 20
-0.917422
  0
VERTEX
  8
EBENE_1
 62
   146
  6
CONTINUOUS
 10
-0.244517
 20
-0.914182
  0
VERTEX
  8
EBENE_1
 62
   146
  6
CONTINUOUS
 10
-0.256878
 20
-0.910780
  0
VERTEX
  8
EBENE_1
 62
   146
  6
CONTINUOUS
 10
-0.269171
 20
-0.907216
  0
VERTEX
  8
EBENE_1
 62
   146
  6
CONTINUOUS
 10
-0.281395
 20
-0.903491
  0
VERTEX
  8
EBENE_1
 62
   146
  6
CONTINUOUS
 10
-0.293549
 20
-0.899606
  0
VERTEX
  8
EBENE_1
 62
   146
  6
CONTINUOUS
 10
-0.305631
 20
-0.895563
  0
VERTEX
  8
EBENE_1
 62
   146
  6
CONTINUOUS
 10
-0.317641
 20
-0.891363
  0
VERTEX
  8
EBENE_1
 62
   146
  6
CONTINUOUS
 10
-0.329576
 20
-0.887008
  0
VERTEX
  8
EBENE_1
 62
   146
  6
CONTINUOUS
 10
-0.341436
 20
-0.882497
  0
VERTEX
  8
EBENE_1
 62
   146
  6
CONTINUOUS
 10
-0.353220
 20
-0.877833
  0
VERTEX
  8
EBENE_1
 62
   146
  6
CONTINUOUS
 10
-0.364927
 20
-0.873017
  0
VERTEX
  8
EBENE_1
 62
   146
  6
CONTINUOUS
 10
-0.376554
 20
-0.868050
  0
VERTEX
  8
EBENE_1
 62
   146
  6
CONTINUOUS
 10
-0.388101
 20
-0.862933
  0
VERTEX
  8
EBENE_1
 62
   146
  6
CONTINUOUS
 10
-0.399567
 20
-0.857668
  0
VERTEX
  8
EBENE_1
 62
   146
  6
CONTINUOUS
 10
-0.410951
 20
-0.852255
  0
VERTEX
  8
EBENE_1
 62
   146
  6
CONTINUOUS
 10
-0.422250
 20
-0.846697
  0
VERTEX
  8
EBENE_1
 62
   146
  6
CONTINUOUS
 10
-0.433465
 20
-0.840993
  0
VERTEX
  8
EBENE_1
 62
   146
  6
CONTINUOUS
 10
-0.444594
 20
-0.835146
  0
VERTEX
  8
EBENE_1
 62
   146
  6
CONTINUOUS
 10
-0.455635
 20
-0.829156
  0
VERTEX
  8
EBENE_1
 62
   146
  6
CONTINUOUS
 10
-0.466587
 20
-0.823025
  0
VERTEX
  8
EBENE_1
 62
   146
  6
CONTINUOUS
 10
-0.477450
 20
-0.816754
  0
VERTEX
  8
EBENE_1
 62
   146
  6
CONTINUOUS
 10
-0.488221
 20
-0.810344
  0
VERTEX
  8
EBENE_1
 62
   146
  6
CONTINUOUS
 10
-0.498900
 20
-0.803797
  0
VERTEX
  8
EBENE_1
 62
   146
  6
CONTINUOUS
 10
-0.509486
 20
-0.797114
  0
VERTEX
  8
EBENE_1
 62
   146
  6
CONTINUOUS
 10
-0.519977
 20
-0.790295
  0
VERTEX
  8
EBENE_1
 62
   146
  6
CONTINUOUS
 10
-0.530372
 20
-0.783342
  0
VERTEX
  8
EBENE_1
 62
   146
  6
CONTINUOUS
 10
-0.540670
 20
-0.776257
  0
VERTEX
  8
EBENE_1
 62
   146
  6
CONTINUOUS
 10
-0.550870
 20
-0.769040
  0
VERTEX
  8
EBENE_1
 62
   146
  6
CONTINUOUS
 10
-0.560969
 20
-0.761693
  0
VERTEX
  8
EBENE_1
 62
   146
  6
CONTINUOUS
 10
-0.570968
 20
-0.754218
  0
VERTEX
  8
EBENE_1
 62
   146
  6
CONTINUOUS
 10
-0.580865
 20
-0.746614
  0
VERTEX
  8
EBENE_1
 62
   146
  6
CONTINUOUS
 10
-0.590659
 20
-0.738884
  0
VERTEX
  8
EBENE_1
 62
   146
  6
CONTINUOUS
 10
-0.600348
 20
-0.731028
  0
VERTEX
  8
EBENE_1
 62
   146
  6
CONTINUOUS
 10
-0.609932
 20
-0.723048
  0
VERTEX
  8
EBENE_1
 62
   146
  6
CONTINUOUS
 10
-0.619408
 20
-0.714946
  0
VERTEX
  8
EBENE_1
 62
   146
  6
CONTINUOUS
 10
-0.628776
 20
-0.706721
  0
VERTEX
  8
EBENE_1
 62
   146
  6
CONTINUOUS
 10
-0.638035
 20
-0.698377
  0
VERTEX
  8
EBENE_1
 62
   146
  6
CONTINUOUS
 10
-0.647184
 20
-0.689913
  0
VERTEX
  8
EBENE_1
 62
   146
  6
CONTINUOUS
 10
-0.656220
 20
-0.681331
  0
VERTEX
  8
EBENE_1
 62
   146
  6
CONTINUOUS
 10
-0.665144
 20
-0.672632
  0
VERTEX
  8
EBENE_1
 62
   146
  6
CONTINUOUS
 10
-0.673953
 20
-0.663818
  0
VERTEX
  8
EBENE_1
 62
   146
  6
CONTINUOUS
 10
-0.682646
 20
-0.654889
  0
VERTEX
  8
EBENE_1
 62
   146
  6
CONTINUOUS
 10
-0.691223
 20
-0.645847
  0
VERTEX
  8
EBENE_1
 62
   146
  6
CONTINUOUS
 10
-0.699682
 20
-0.636693
  0
VERTEX
  8
EBENE_1
 62
   146
  6
CONTINUOUS
 10
-0.708022
 20
-0.627429
  0
VERTEX
  8
EBENE_1
 62
   146
  6
CONTINUOUS
 10
-0.716242
 20
-0.618055
  0
VERTEX
  8
EBENE_1
 62
   146
  6
CONTINUOUS
 10
-0.724340
 20
-0.608573
  0
VERTEX
  8
EBENE_1
 62
   146
  6
CONTINUOUS
 10
-0.732315
 20
-0.598984
  0
VERTEX
  8
EBENE_1
 62
   146
  6
CONTINUOUS
 10
-0.740166
 20
-0.589289
  0
VERTEX
  8
EBENE_1
 62
   146
  6
CONTINUOUS
 10
-0.747892
 20
-0.579489
  0
VERTEX
  8
EBENE_1
 62
   146
  6
CONTINUOUS
 10
-0.755491
 20
-0.569586
  0
VERTEX
  8
EBENE_1
 62
   146
  6
CONTINUOUS
 10
-0.762963
 20
-0.559581
  0
VERTEX
  8
EBENE_1
 62
   146
  6
CONTINUOUS
 10
-0.770306
 20
-0.549475
  0
VERTEX
  8
EBENE_1
 62
   146
  6
CONTINUOUS
 10
-0.777518
 20
-0.539269
  0
VERTEX
  8
EBENE_1
 62
   146
  6
CONTINUOUS
 10
-0.784599
 20
-0.528965
  0
VERTEX
  8
EBENE_1
 62
   146
  6
CONTINUOUS
 10
-0.791548
 20
-0.518564
  0
VERTEX
  8
EBENE_1
 62
   146
  6
CONTINUOUS
 10
-0.798363
 20
-0.508066
  0
VERTEX
  8
EBENE_1
 62
   146
  6
CONTINUOUS
 10
-0.805043
 20
-0.497474
  0
VERTEX
  8
EBENE_1
 62
   146
  6
CONTINUOUS
 10
-0.811586
 20
-0.486788
  0
VERTEX
  8
EBENE_1
 62
   146
  6
CONTINUOUS
 10
-0.817993
 20
-0.476010
  0
VERTEX
  8
EBENE_1
 62
   146
  6
CONTINUOUS
 10
-0.824260
 20
-0.465140
  0
VERTEX
  8
EBENE_1
 62
   146
  6
CONTINUOUS
 10
-0.830388
 20
-0.454181
  0
VERTEX
  8
EBENE_1
 62
   146
  6
CONTINUOUS
 10
-0.836374
 20
-0.443133
  0
VERTEX
  8
EBENE_1
 62
   146
  6
CONTINUOUS
 10
-0.842218
 20
-0.431997
  0
VERTEX
  8
EBENE_1
 62
   146
  6
CONTINUOUS
 10
-0.847919
 20
-0.420775
  0
VERTEX
  8
EBENE_1
 62
   146
  6
CONTINUOUS
 10
-0.853474
 20
-0.409469
  0
VERTEX
  8
EBENE_1
 62
   146
  6
CONTINUOUS
 10
-0.858884
 20
-0.398078
  0
VERTEX
  8
EBENE_1
 62
   146
  6
CONTINUOUS
 10
-0.864147
 20
-0.386605
  0
VERTEX
  8
EBENE_1
 62
   146
  6
CONTINUOUS
 10
-0.869261
 20
-0.375050
  0
VERTEX
  8
EBENE_1
 62
   146
  6
CONTINUOUS
 10
-0.874225
 20
-0.363415
  0
VERTEX
  8
EBENE_1
 62
   146
  6
CONTINUOUS
 10
-0.879038
 20
-0.351701
  0
VERTEX
  8
EBENE_1
 62
   146
  6
CONTINUOUS
 10
-0.883700
 20
-0.339910
  0
VERTEX
  8
EBENE_1
 62
   146
  6
CONTINUOUS
 10
-0.888208
 20
-0.328041
  0
VERTEX
  8
EBENE_1
 62
   146
  6
CONTINUOUS
 10
-0.892561
 20
-0.316098
  0
VERTEX
  8
EBENE_1
 62
   146
  6
CONTINUOUS
 10
-0.896759
 20
-0.304081
  0
VERTEX
  8
EBENE_1
 62
   146
  6
CONTINUOUS
 10
-0.900800
 20
-0.291990
  0
VERTEX
  8
EBENE_1
 62
   146
  6
CONTINUOUS
 10
-0.904682
 20
-0.279829
  0
VERTEX
  8
EBENE_1
 62
   146
  6
CONTINUOUS
 10
-0.908405
 20
-0.267596
  0
VERTEX
  8
EBENE_1
 62
   146
  6
CONTINUOUS
 10
-0.911968
 20
-0.255295
  0
VERTEX
  8
EBENE_1
 62
   146
  6
CONTINUOUS
 10
-0.915368
 20
-0.242925
  0
VERTEX
  8
EBENE_1
 62
   146
  6
CONTINUOUS
 10
-0.918606
 20
-0.230489
  0
VERTEX
  8
EBENE_1
 62
   146
  6
CONTINUOUS
 10
-0.921679
 20
-0.217988
  0
VERTEX
  8
EBENE_1
 62
   146
  6
CONTINUOUS
 10
-0.924586
 20
-0.205422
  0
VERTEX
  8
EBENE_1
 62
   146
  6
CONTINUOUS
 10
-0.927327
 20
-0.192793
  0
VERTEX
  8
EBENE_1
 62
   146
  6
CONTINUOUS
 10
-0.929900
 20
-0.180102
  0
VERTEX
  8
EBENE_1
 62
   146
  6
CONTINUOUS
 10
-0.932304
 20
-0.167350
  0
VERTEX
  8
EBENE_1
 62
   146
  6
CONTINUOUS
 10
-0.934537
 20
-0.154539
  0
VERTEX
  8
EBENE_1
 62
   146
  6
CONTINUOUS
 10
-0.936599
 20
-0.141670
  0
VERTEX
  8
EBENE_1
 62
   146
  6
CONTINUOUS
 10
-0.938487
 20
-0.128744
  0
VERTEX
  8
EBENE_1
 62
   146
  6
CONTINUOUS
 10
-0.940202
 20
-0.115762
  0
VERTEX
  8
EBENE_1
 62
   146
  6
CONTINUOUS
 10
-0.941741
 20
-0.102726
  0
VERTEX
  8
EBENE_1
 62
   146
  6
CONTINUOUS
 10
-0.943104
 20
-0.089636
  0
VERTEX
  8
EBENE_1
 62
   146
  6
CONTINUOUS
 10
-0.944289
 20
-0.076494
  0
VERTEX
  8
EBENE_1
 62
   146
  6
CONTINUOUS
 10
-0.945295
 20
-0.063302
  0
VERTEX
  8
EBENE_1
 62
   146
  6
CONTINUOUS
 10
-0.946121
 20
-0.050059
  0
VERTEX
  8
EBENE_1
 62
   146
  6
CONTINUOUS
 10
-0.946766
 20
-0.036769
  0
VERTEX
  8
EBENE_1
 62
   146
  6
CONTINUOUS
 10
-0.947227
 20
-0.023431
  0
VERTEX
  8
EBENE_1
 62
   146
  6
CONTINUOUS
 10
-0.947505
 20
-0.010047
  0
VERTEX
  8
EBENE_1
 62
   146
  6
CONTINUOUS
 10
-0.947598
 20
0.003382
  0
SEQEND
  8
0
  0
POLYLINE
  8
EBENE_1
 62
   146
  6
CONTINUOUS
 66
     1
 40
0.047244
 41
0.047244
  0
VERTEX
  8
EBENE_1
 62
   146
  6
CONTINUOUS
 10
-0.947598
 20
0.003382
  0
VERTEX
  8
EBENE_1
 62
   146
  6
CONTINUOUS
 10
-0.947505
 20
0.016801
  0
VERTEX
  8
EBENE_1
 62
   146
  6
CONTINUOUS
 10
-0.947227
 20
0.030175
  0
VERTEX
  8
EBENE_1
 62
   146
  6
CONTINUOUS
 10
-0.946766
 20
0.043504
  0
VERTEX
  8
EBENE_1
 62
   146
  6
CONTINUOUS
 10
-0.946121
 20
0.056785
  0
VERTEX
  8
EBENE_1
 62
   146
  6
CONTINUOUS
 10
-0.945295
 20
0.070018
  0
VERTEX
  8
EBENE_1
 62
   146
  6
CONTINUOUS
 10
-0.944289
 20
0.083201
  0
VERTEX
  8
EBENE_1
 62
   146
  6
CONTINUOUS
 10
-0.943104
 20
0.096333
  0
VERTEX
  8
EBENE_1
 62
   146
  6
CONTINUOUS
 10
-0.941741
 20
0.109414
  0
VERTEX
  8
EBENE_1
 62
   146
  6
CONTINUOUS
 10
-0.940202
 20
0.122441
  0
VERTEX
  8
EBENE_1
 62
   146
  6
CONTINUOUS
 10
-0.938487
 20
0.135414
  0
VERTEX
  8
EBENE_1
 62
   146
  6
CONTINUOUS
 10
-0.936599
 20
0.148331
  0
VERTEX
  8
EBENE_1
 62
   146
  6
CONTINUOUS
 10
-0.934537
 20
0.161191
  0
VERTEX
  8
EBENE_1
 62
   146
  6
CONTINUOUS
 10
-0.932304
 20
0.173993
  0
VERTEX
  8
EBENE_1
 62
   146
  6
CONTINUOUS
 10
-0.929900
 20
0.186736
  0
VERTEX
  8
EBENE_1
 62
   146
  6
CONTINUOUS
 10
-0.927327
 20
0.199418
  0
VERTEX
  8
EBENE_1
 62
   146
  6
CONTINUOUS
 10
-0.924586
 20
0.212038
  0
VERTEX
  8
EBENE_1
 62
   146
  6
CONTINUOUS
 10
-0.921679
 20
0.224596
  0
VERTEX
  8
EBENE_1
 62
   146
  6
CONTINUOUS
 10
-0.918606
 20
0.237089
  0
VERTEX
  8
EBENE_1
 62
   146
  6
CONTINUOUS
 10
-0.915368
 20
0.249516
  0
VERTEX
  8
EBENE_1
 62
   146
  6
CONTINUOUS
 10
-0.911968
 20
0.261877
  0
VERTEX
  8
EBENE_1
 62
   146
  6
CONTINUOUS
 10
-0.908405
 20
0.274170
  0
VERTEX
  8
EBENE_1
 62
   146
  6
CONTINUOUS
 10
-0.904682
 20
0.286394
  0
VERTEX
  8
EBENE_1
 62
   146
  6
CONTINUOUS
 10
-0.900800
 20
0.298548
  0
VERTEX
  8
EBENE_1
 62
   146
  6
CONTINUOUS
 10
-0.896759
 20
0.310630
  0
VERTEX
  8
EBENE_1
 62
   146
  6
CONTINUOUS
 10
-0.892561
 20
0.322639
  0
VERTEX
  8
EBENE_1
 62
   146
  6
CONTINUOUS
 10
-0.888208
 20
0.334575
  0
VERTEX
  8
EBENE_1
 62
   146
  6
CONTINUOUS
 10
-0.883700
 20
0.346435
  0
VERTEX
  8
EBENE_1
 62
   146
  6
CONTINUOUS
 10
-0.879038
 20
0.358219
  0
VERTEX
  8
EBENE_1
 62
   146
  6
CONTINUOUS
 10
-0.874225
 20
0.369925
  0
VERTEX
  8
EBENE_1
 62
   146
  6
CONTINUOUS
 10
-0.869261
 20
0.381552
  0
VERTEX
  8
EBENE_1
 62
   146
  6
CONTINUOUS
 10
-0.864147
 20
0.393099
  0
VERTEX
  8
EBENE_1
 62
   146
  6
CONTINUOUS
 10
-0.858884
 20
0.404565
  0
VERTEX
  8
EBENE_1
 62
   146
  6
CONTINUOUS
 10
-0.853474
 20
0.415948
  0
VERTEX
  8
EBENE_1
 62
   146
  6
CONTINUOUS
 10
-0.847919
 20
0.427247
  0
VERTEX
  8
EBENE_1
 62
   146
  6
CONTINUOUS
 10
-0.842218
 20
0.438462
  0
VERTEX
  8
EBENE_1
 62
   146
  6
CONTINUOUS
 10
-0.836374
 20
0.449590
  0
VERTEX
  8
EBENE_1
 62
   146
  6
CONTINUOUS
 10
-0.830388
 20
0.460631
  0
VERTEX
  8
EBENE_1
 62
   146
  6
CONTINUOUS
 10
-0.824260
 20
0.471583
  0
VERTEX
  8
EBENE_1
 62
   146
  6
CONTINUOUS
 10
-0.817993
 20
0.482445
  0
VERTEX
  8
EBENE_1
 62
   146
  6
CONTINUOUS
 10
-0.811586
 20
0.493217
  0
VERTEX
  8
EBENE_1
 62
   146
  6
CONTINUOUS
 10
-0.805043
 20
0.503896
  0
VERTEX
  8
EBENE_1
 62
   146
  6
CONTINUOUS
 10
-0.798363
 20
0.514481
  0
VERTEX
  8
EBENE_1
 62
   146
  6
CONTINUOUS
 10
-0.791548
 20
0.524972
  0
VERTEX
  8
EBENE_1
 62
   146
  6
CONTINUOUS
 10
-0.784599
 20
0.535366
  0
VERTEX
  8
EBENE_1
 62
   146
  6
CONTINUOUS
 10
-0.777518
 20
0.545664
  0
VERTEX
  8
EBENE_1
 62
   146
  6
CONTINUOUS
 10
-0.770306
 20
0.555863
  0
VERTEX
  8
EBENE_1
 62
   146
  6
CONTINUOUS
 10
-0.762963
 20
0.565963
  0
VERTEX
  8
EBENE_1
 62
   146
  6
CONTINUOUS
 10
-0.755491
 20
0.575961
  0
VERTEX
  8
EBENE_1
 62
   146
  6
CONTINUOUS
 10
-0.747892
 20
0.585858
  0
VERTEX
  8
EBENE_1
 62
   146
  6
CONTINUOUS
 10
-0.740166
 20
0.595651
  0
VERTEX
  8
EBENE_1
 62
   146
  6
CONTINUOUS
 10
-0.732315
 20
0.605340
  0
VERTEX
  8
EBENE_1
 62
   146
  6
CONTINUOUS
 10
-0.724340
 20
0.614923
  0
VERTEX
  8
EBENE_1
 62
   146
  6
CONTINUOUS
 10
-0.716242
 20
0.624399
  0
VERTEX
  8
EBENE_1
 62
   146
  6
CONTINUOUS
 10
-0.708022
 20
0.633767
  0
VERTEX
  8
EBENE_1
 62
   146
  6
CONTINUOUS
 10
-0.699682
 20
0.643026
  0
VERTEX
  8
EBENE_1
 62
   146
  6
CONTINUOUS
 10
-0.691223
 20
0.652174
  0
VERTEX
  8
EBENE_1
 62
   146
  6
CONTINUOUS
 10
-0.682646
 20
0.661210
  0
VERTEX
  8
EBENE_1
 62
   146
  6
CONTINUOUS
 10
-0.673953
 20
0.670133
  0
VERTEX
  8
EBENE_1
 62
   146
  6
CONTINUOUS
 10
-0.665144
 20
0.678942
  0
VERTEX
  8
EBENE_1
 62
   146
  6
CONTINUOUS
 10
-0.656220
 20
0.687636
  0
VERTEX
  8
EBENE_1
 62
   146
  6
CONTINUOUS
 10
-0.647184
 20
0.696212
  0
VERTEX
  8
EBENE_1
 62
   146
  6
CONTINUOUS
 10
-0.638035
 20
0.704671
  0
VERTEX
  8
EBENE_1
 62
   146
  6
CONTINUOUS
 10
-0.628776
 20
0.713011
  0
VERTEX
  8
EBENE_1
 62
   146
  6
CONTINUOUS
 10
-0.619408
 20
0.721230
  0
VERTEX
  8
EBENE_1
 62
   146
  6
CONTINUOUS
 10
-0.609932
 20
0.729327
  0
VERTEX
  8
EBENE_1
 62
   146
  6
CONTINUOUS
 10
-0.600348
 20
0.737302
  0
VERTEX
  8
EBENE_1
 62
   146
  6
CONTINUOUS
 10
-0.590659
 20
0.745153
  0
VERTEX
  8
EBENE_1
 62
   146
  6
CONTINUOUS
 10
-0.580865
 20
0.752878
  0
VERTEX
  8
EBENE_1
 62
   146
  6
CONTINUOUS
 10
-0.570968
 20
0.760477
  0
VERTEX
  8
EBENE_1
 62
   146
  6
CONTINUOUS
 10
-0.560969
 20
0.767949
  0
VERTEX
  8
EBENE_1
 62
   146
  6
CONTINUOUS
 10
-0.550870
 20
0.775291
  0
VERTEX
  8
EBENE_1
 62
   146
  6
CONTINUOUS
 10
-0.540670
 20
0.782503
  0
VERTEX
  8
EBENE_1
 62
   146
  6
CONTINUOUS
 10
-0.530372
 20
0.789584
  0
VERTEX
  8
EBENE_1
 62
   146
  6
CONTINUOUS
 10
-0.519977
 20
0.796533
  0
VERTEX
  8
EBENE_1
 62
   146
  6
CONTINUOUS
 10
-0.509486
 20
0.803347
  0
VERTEX
  8
EBENE_1
 62
   146
  6
CONTINUOUS
 10
-0.498900
 20
0.810027
  0
VERTEX
  8
EBENE_1
 62
   146
  6
CONTINUOUS
 10
-0.488221
 20
0.816570
  0
VERTEX
  8
EBENE_1
 62
   146
  6
CONTINUOUS
 10
-0.477450
 20
0.822976
  0
VERTEX
  8
EBENE_1
 62
   146
  6
CONTINUOUS
 10
-0.466587
 20
0.829243
  0
VERTEX
  8
EBENE_1
 62
   146
  6
CONTINUOUS
 10
-0.455635
 20
0.835370
  0
VERTEX
  8
EBENE_1
 62
   146
  6
CONTINUOUS
 10
-0.444594
 20
0.841356
  0
VERTEX
  8
EBENE_1
 62
   146
  6
CONTINUOUS
 10
-0.433465
 20
0.847200
  0
VERTEX
  8
EBENE_1
 62
   146
  6
CONTINUOUS
 10
-0.422250
 20
0.852901
  0
VERTEX
  8
EBENE_1
 62
   146
  6
CONTINUOUS
 10
-0.410951
 20
0.858456
  0
VERTEX
  8
EBENE_1
 62
   146
  6
CONTINUOUS
 10
-0.399567
 20
0.863865
  0
VERTEX
  8
EBENE_1
 62
   146
  6
CONTINUOUS
 10
-0.388101
 20
0.869128
  0
VERTEX
  8
EBENE_1
 62
   146
  6
CONTINUOUS
 10
-0.376554
 20
0.874241
  0
VERTEX
  8
EBENE_1
 62
   146
  6
CONTINUOUS
 10
-0.364927
 20
0.879206
  0
VERTEX
  8
EBENE_1
 62
   146
  6
CONTINUOUS
 10
-0.353220
 20
0.884019
  0
VERTEX
  8
EBENE_1
 62
   146
  6
CONTINUOUS
 10
-0.341436
 20
0.888680
  0
VERTEX
  8
EBENE_1
 62
   146
  6
CONTINUOUS
 10
-0.329576
 20
0.893188
  0
VERTEX
  8
EBENE_1
 62
   146
  6
CONTINUOUS
 10
-0.317641
 20
0.897541
  0
VERTEX
  8
EBENE_1
 62
   146
  6
CONTINUOUS
 10
-0.305631
 20
0.901738
  0
VERTEX
  8
EBENE_1
 62
   146
  6
CONTINUOUS
 10
-0.293549
 20
0.905779
  0
VERTEX
  8
EBENE_1
 62
   146
  6
CONTINUOUS
 10
-0.281395
 20
0.909661
  0
VERTEX
  8
EBENE_1
 62
   146
  6
CONTINUOUS
 10
-0.269171
 20
0.913384
  0
VERTEX
  8
EBENE_1
 62
   146
  6
CONTINUOUS
 10
-0.256878
 20
0.916946
  0
VERTEX
  8
EBENE_1
 62
   146
  6
CONTINUOUS
 10
-0.244517
 20
0.920347
  0
VERTEX
  8
EBENE_1
 62
   146
  6
CONTINUOUS
 10
-0.232089
 20
0.923584
  0
VERTEX
  8
EBENE_1
 62
   146
  6
CONTINUOUS
 10
-0.219596
 20
0.926657
  0
VERTEX
  8
EBENE_1
 62
   146
  6
CONTINUOUS
 10
-0.207038
 20
0.929564
  0
VERTEX
  8
EBENE_1
 62
   146
  6
CONTINUOUS
 10
-0.194418
 20
0.932305
  0
VERTEX
  8
EBENE_1
 62
   146
  6
CONTINUOUS
 10
-0.181736
 20
0.934878
  0
VERTEX
  8
EBENE_1
 62
   146
  6
CONTINUOUS
 10
-0.168993
 20
0.937281
  0
VERTEX
  8
EBENE_1
 62
   146
  6
CONTINUOUS
 10
-0.156191
 20
0.939514
  0
VERTEX
  8
EBENE_1
 62
   146
  6
CONTINUOUS
 10
-0.143331
 20
0.941576
  0
VERTEX
  8
EBENE_1
 62
   146
  6
CONTINUOUS
 10
-0.130414
 20
0.943464
  0
VERTEX
  8
EBENE_1
 62
   146
  6
CONTINUOUS
 10
-0.117441
 20
0.945179
  0
VERTEX
  8
EBENE_1
 62
   146
  6
CONTINUOUS
 10
-0.104414
 20
0.946718
  0
VERTEX
  8
EBENE_1
 62
   146
  6
CONTINUOUS
 10
-0.091333
 20
0.948081
  0
VERTEX
  8
EBENE_1
 62
   146
  6
CONTINUOUS
 10
-0.078201
 20
0.949266
  0
VERTEX
  8
EBENE_1
 62
   146
  6
CONTINUOUS
 10
-0.065017
 20
0.950272
  0
VERTEX
  8
EBENE_1
 62
   146
  6
CONTINUOUS
 10
-0.051785
 20
0.951098
  0
VERTEX
  8
EBENE_1
 62
   146
  6
CONTINUOUS
 10
-0.038503
 20
0.951742
  0
VERTEX
  8
EBENE_1
 62
   146
  6
CONTINUOUS
 10
-0.025175
 20
0.952204
  0
VERTEX
  8
EBENE_1
 62
   146
  6
CONTINUOUS
 10
-0.011801
 20
0.952482
  0
VERTEX
  8
EBENE_1
 62
   146
  6
CONTINUOUS
 10
0.001618
 20
0.952575
  0
SEQEND
  8
0
  0
POLYLINE
  8
EBENE_1
 62
   146
  6
CONTINUOUS
 66
     1
 40
0.047244
 41
0.047244
  0
VERTEX
  8
EBENE_1
 62
   146
  6
CONTINUOUS
 10
0.001618
 20
0.952575
  0
VERTEX
  8
EBENE_1
 62
   146
  6
CONTINUOUS
 10
0.015040
 20
0.952482
  0
VERTEX
  8
EBENE_1
 62
   146
  6
CONTINUOUS
 10
0.028417
 20
0.952204
  0
VERTEX
  8
EBENE_1
 62
   146
  6
CONTINUOUS
 10
0.041748
 20
0.951742
  0
VERTEX
  8
EBENE_1
 62
   146
  6
CONTINUOUS
 10
0.055032
 20
0.951098
  0
VERTEX
  8
EBENE_1
 62
   146
  6
CONTINUOUS
 10
0.068268
 20
0.950272
  0
VERTEX
  8
EBENE_1
 62
   146
  6
CONTINUOUS
 10
0.081453
 20
0.949266
  0
VERTEX
  8
EBENE_1
 62
   146
  6
CONTINUOUS
 10
0.094589
 20
0.948081
  0
VERTEX
  8
EBENE_1
 62
   146
  6
CONTINUOUS
 10
0.107672
 20
0.946718
  0
VERTEX
  8
EBENE_1
 62
   146
  6
CONTINUOUS
 10
0.120701
 20
0.945179
  0
VERTEX
  8
EBENE_1
 62
   146
  6
CONTINUOUS
 10
0.133677
 20
0.943464
  0
VERTEX
  8
EBENE_1
 62
   146
  6
CONTINUOUS
 10
0.146596
 20
0.941576
  0
VERTEX
  8
EBENE_1
 62
   146
  6
CONTINUOUS
 10
0.159459
 20
0.939514
  0
VERTEX
  8
EBENE_1
 62
   146
  6
CONTINUOUS
 10
0.172263
 20
0.937281
  0
VERTEX
  8
EBENE_1
 62
   146
  6
CONTINUOUS
 10
0.185008
 20
0.934878
  0
VERTEX
  8
EBENE_1
 62
   146
  6
CONTINUOUS
 10
0.197692
 20
0.932305
  0
VERTEX
  8
EBENE_1
 62
   146
  6
CONTINUOUS
 10
0.210315
 20
0.929564
  0
VERTEX
  8
EBENE_1
 62
   146
  6
CONTINUOUS
 10
0.222875
 20
0.926657
  0
VERTEX
  8
EBENE_1
 62
   146
  6
CONTINUOUS
 10
0.235370
 20
0.923584
  0
VERTEX
  8
EBENE_1
 62
   146
  6
CONTINUOUS
 10
0.247800
 20
0.920347
  0
VERTEX
  8
EBENE_1
 62
   146
  6
CONTINUOUS
 10
0.260163
 20
0.916946
  0
VERTEX
  8
EBENE_1
 62
   146
  6
CONTINUOUS
 10
0.272458
 20
0.913384
  0
VERTEX
  8
EBENE_1
 62
   146
  6
CONTINUOUS
 10
0.284684
 20
0.909661
  0
VERTEX
  8
EBENE_1
 62
   146
  6
CONTINUOUS
 10
0.296840
 20
0.905779
  0
VERTEX
  8
EBENE_1
 62
   146
  6
CONTINUOUS
 10
0.308924
 20
0.901738
  0
VERTEX
  8
EBENE_1
 62
   146
  6
CONTINUOUS
 10
0.320935
 20
0.897541
  0
VERTEX
  8
EBENE_1
 62
   146
  6
CONTINUOUS
 10
0.332872
 20
0.893188
  0
VERTEX
  8
EBENE_1
 62
   146
  6
CONTINUOUS
 10
0.344734
 20
0.888680
  0
VERTEX
  8
EBENE_1
 62
   146
  6
CONTINUOUS
 10
0.356520
 20
0.884019
  0
VERTEX
  8
EBENE_1
 62
   146
  6
CONTINUOUS
 10
0.368228
 20
0.879206
  0
VERTEX
  8
EBENE_1
 62
   146
  6
CONTINUOUS
 10
0.379857
 20
0.874241
  0
VERTEX
  8
EBENE_1
 62
   146
  6
CONTINUOUS
 10
0.391406
 20
0.869128
  0
VERTEX
  8
EBENE_1
 62
   146
  6
CONTINUOUS
 10
0.402873
 20
0.863865
  0
VERTEX
  8
EBENE_1
 62
   146
  6
CONTINUOUS
 10
0.414258
 20
0.858456
  0
VERTEX
  8
EBENE_1
 62
   146
  6
CONTINUOUS
 10
0.425559
 20
0.852901
  0
VERTEX
  8
EBENE_1
 62
   146
  6
CONTINUOUS
 10
0.436775
 20
0.847200
  0
VERTEX
  8
EBENE_1
 62
   146
  6
CONTINUOUS
 10
0.447905
 20
0.841356
  0
VERTEX
  8
EBENE_1
 62
   146
  6
CONTINUOUS
 10
0.458948
 20
0.835370
  0
VERTEX
  8
EBENE_1
 62
   146
  6
CONTINUOUS
 10
0.469901
 20
0.829243
  0
VERTEX
  8
EBENE_1
 62
   146
  6
CONTINUOUS
 10
0.480765
 20
0.822976
  0
VERTEX
  8
EBENE_1
 62
   146
  6
CONTINUOUS
 10
0.491538
 20
0.816570
  0
VERTEX
  8
EBENE_1
 62
   146
  6
CONTINUOUS
 10
0.502218
 20
0.810027
  0
VERTEX
  8
EBENE_1
 62
   146
  6
CONTINUOUS
 10
0.512805
 20
0.803347
  0
VERTEX
  8
EBENE_1
 62
   146
  6
CONTINUOUS
 10
0.523298
 20
0.796533
  0
VERTEX
  8
EBENE_1
 62
   146
  6
CONTINUOUS
 10
0.533694
 20
0.789584
  0
VERTEX
  8
EBENE_1
 62
   146
  6
CONTINUOUS
 10
0.543993
 20
0.782503
  0
VERTEX
  8
EBENE_1
 62
   146
  6
CONTINUOUS
 10
0.554193
 20
0.775291
  0
VERTEX
  8
EBENE_1
 62
   146
  6
CONTINUOUS
 10
0.564294
 20
0.767949
  0
VERTEX
  8
EBENE_1
 62
   146
  6
CONTINUOUS
 10
0.574294
 20
0.760477
  0
VERTEX
  8
EBENE_1
 62
   146
  6
CONTINUOUS
 10
0.584192
 20
0.752878
  0
VERTEX
  8
EBENE_1
 62
   146
  6
CONTINUOUS
 10
0.593986
 20
0.745153
  0
VERTEX
  8
EBENE_1
 62
   146
  6
CONTINUOUS
 10
0.603676
 20
0.737302
  0
VERTEX
  8
EBENE_1
 62
   146
  6
CONTINUOUS
 10
0.613261
 20
0.729327
  0
VERTEX
  8
EBENE_1
 62
   146
  6
CONTINUOUS
 10
0.622738
 20
0.721230
  0
VERTEX
  8
EBENE_1
 62
   146
  6
CONTINUOUS
 10
0.632107
 20
0.713011
  0
VERTEX
  8
EBENE_1
 62
   146
  6
CONTINUOUS
 10
0.641367
 20
0.704671
  0
VERTEX
  8
EBENE_1
 62
   146
  6
CONTINUOUS
 10
0.650516
 20
0.696212
  0
VERTEX
  8
EBENE_1
 62
   146
  6
CONTINUOUS
 10
0.659553
 20
0.687636
  0
VERTEX
  8
EBENE_1
 62
   146
  6
CONTINUOUS
 10
0.668477
 20
0.678942
  0
VERTEX
  8
EBENE_1
 62
   146
  6
CONTINUOUS
 10
0.677287
 20
0.670133
  0
VERTEX
  8
EBENE_1
 62
   146
  6
CONTINUOUS
 10
0.685982
 20
0.661210
  0
VERTEX
  8
EBENE_1
 62
   146
  6
CONTINUOUS
 10
0.694559
 20
0.652174
  0
VERTEX
  8
EBENE_1
 62
   146
  6
CONTINUOUS
 10
0.703019
 20
0.643026
  0
VERTEX
  8
EBENE_1
 62
   146
  6
CONTINUOUS
 10
0.711359
 20
0.633767
  0
VERTEX
  8
EBENE_1
 62
   146
  6
CONTINUOUS
 10
0.719579
 20
0.624399
  0
VERTEX
  8
EBENE_1
 62
   146
  6
CONTINUOUS
 10
0.727678
 20
0.614923
  0
VERTEX
  8
EBENE_1
 62
   146
  6
CONTINUOUS
 10
0.735654
 20
0.605340
  0
VERTEX
  8
EBENE_1
 62
   146
  6
CONTINUOUS
 10
0.743505
 20
0.595651
  0
VERTEX
  8
EBENE_1
 62
   146
  6
CONTINUOUS
 10
0.751231
 20
0.585858
  0
VERTEX
  8
EBENE_1
 62
   146
  6
CONTINUOUS
 10
0.758831
 20
0.575961
  0
VERTEX
  8
EBENE_1
 62
   146
  6
CONTINUOUS
 10
0.766303
 20
0.565963
  0
VERTEX
  8
EBENE_1
 62
   146
  6
CONTINUOUS
 10
0.773646
 20
0.555863
  0
VERTEX
  8
EBENE_1
 62
   146
  6
CONTINUOUS
 10
0.780859
 20
0.545664
  0
VERTEX
  8
EBENE_1
 62
   146
  6
CONTINUOUS
 10
0.787941
 20
0.535366
  0
VERTEX
  8
EBENE_1
 62
   146
  6
CONTINUOUS
 10
0.794890
 20
0.524972
  0
VERTEX
  8
EBENE_1
 62
   146
  6
CONTINUOUS
 10
0.801705
 20
0.514481
  0
VERTEX
  8
EBENE_1
 62
   146
  6
CONTINUOUS
 10
0.808385
 20
0.503896
  0
VERTEX
  8
EBENE_1
 62
   146
  6
CONTINUOUS
 10
0.814929
 20
0.493217
  0
VERTEX
  8
EBENE_1
 62
   146
  6
CONTINUOUS
 10
0.821336
 20
0.482445
  0
VERTEX
  8
EBENE_1
 62
   146
  6
CONTINUOUS
 10
0.827604
 20
0.471583
  0
VERTEX
  8
EBENE_1
 62
   146
  6
CONTINUOUS
 10
0.833731
 20
0.460631
  0
VERTEX
  8
EBENE_1
 62
   146
  6
CONTINUOUS
 10
0.839718
 20
0.449590
  0
VERTEX
  8
EBENE_1
 62
   146
  6
CONTINUOUS
 10
0.845562
 20
0.438462
  0
VERTEX
  8
EBENE_1
 62
   146
  6
CONTINUOUS
 10
0.851263
 20
0.427247
  0
VERTEX
  8
EBENE_1
 62
   146
  6
CONTINUOUS
 10
0.856819
 20
0.415948
  0
VERTEX
  8
EBENE_1
 62
   146
  6
CONTINUOUS
 10
0.862229
 20
0.404565
  0
VERTEX
  8
EBENE_1
 62
   146
  6
CONTINUOUS
 10
0.867492
 20
0.393099
  0
VERTEX
  8
EBENE_1
 62
   146
  6
CONTINUOUS
 10
0.872606
 20
0.381552
  0
VERTEX
  8
EBENE_1
 62
   146
  6
CONTINUOUS
 10
0.877570
 20
0.369925
  0
VERTEX
  8
EBENE_1
 62
   146
  6
CONTINUOUS
 10
0.882384
 20
0.358219
  0
VERTEX
  8
EBENE_1
 62
   146
  6
CONTINUOUS
 10
0.887045
 20
0.346435
  0
VERTEX
  8
EBENE_1
 62
   146
  6
CONTINUOUS
 10
0.891554
 20
0.334575
  0
VERTEX
  8
EBENE_1
 62
   146
  6
CONTINUOUS
 10
0.895907
 20
0.322639
  0
VERTEX
  8
EBENE_1
 62
   146
  6
CONTINUOUS
 10
0.900105
 20
0.310630
  0
VERTEX
  8
EBENE_1
 62
   146
  6
CONTINUOUS
 10
0.904146
 20
0.298548
  0
VERTEX
  8
EBENE_1
 62
   146
  6
CONTINUOUS
 10
0.908028
 20
0.286394
  0
VERTEX
  8
EBENE_1
 62
   146
  6
CONTINUOUS
 10
0.911752
 20
0.274170
  0
VERTEX
  8
EBENE_1
 62
   146
  6
CONTINUOUS
 10
0.915314
 20
0.261877
  0
VERTEX
  8
EBENE_1
 62
   146
  6
CONTINUOUS
 10
0.918715
 20
0.249516
  0
VERTEX
  8
EBENE_1
 62
   146
  6
CONTINUOUS
 10
0.921952
 20
0.237089
  0
VERTEX
  8
EBENE_1
 62
   146
  6
CONTINUOUS
 10
0.925025
 20
0.224596
  0
VERTEX
  8
EBENE_1
 62
   146
  6
CONTINUOUS
 10
0.927933
 20
0.212038
  0
VERTEX
  8
EBENE_1
 62
   146
  6
CONTINUOUS
 10
0.930674
 20
0.199418
  0
VERTEX
  8
EBENE_1
 62
   146
  6
CONTINUOUS
 10
0.933247
 20
0.186736
  0
VERTEX
  8
EBENE_1
 62
   146
  6
CONTINUOUS
 10
0.935650
 20
0.173993
  0
VERTEX
  8
EBENE_1
 62
   146
  6
CONTINUOUS
 10
0.937883
 20
0.161191
  0
VERTEX
  8
EBENE_1
 62
   146
  6
CONTINUOUS
 10
0.939945
 20
0.148331
  0
VERTEX
  8
EBENE_1
 62
   146
  6
CONTINUOUS
 10
0.941834
 20
0.135414
  0
VERTEX
  8
EBENE_1
 62
   146
  6
CONTINUOUS
 10
0.943548
 20
0.122441
  0
VERTEX
  8
EBENE_1
 62
   146
  6
CONTINUOUS
 10
0.945088
 20
0.109414
  0
VERTEX
  8
EBENE_1
 62
   146
  6
CONTINUOUS
 10
0.946451
 20
0.096333
  0
VERTEX
  8
EBENE_1
 62
   146
  6
CONTINUOUS
 10
0.947636
 20
0.083201
  0
VERTEX
  8
EBENE_1
 62
   146
  6
CONTINUOUS
 10
0.948642
 20
0.070018
  0
VERTEX
  8
EBENE_1
 62
   146
  6
CONTINUOUS
 10
0.949468
 20
0.056785
  0
VERTEX
  8
EBENE_1
 62
   146
  6
CONTINUOUS
 10
0.950112
 20
0.043504
  0
VERTEX
  8
EBENE_1
 62
   146
  6
CONTINUOUS
 10
0.950574
 20
0.030175
  0
VERTEX
  8
EBENE_1
 62
   146
  6
CONTINUOUS
 10
0.950852
 20
0.016801
  0
VERTEX
  8
EBENE_1
 62
   146
  6
CONTINUOUS
 10
0.950945
 20
0.003382
  0
SEQEND
  8
0
  0
POLYLINE
  8
EBENE_1
  6
CONTINUOUS
 66
     1
 40
0.003000
 41
0.003000
 70
     1
  0
VERTEX
  8
EBENE_1
  6
CONTINUOUS
 10
-0.130756
 20
0.263909
  0
VERTEX
  8
EBENE_1
  6
CONTINUOUS
 10
-0.130756
 20
0.109937
  0
VERTEX
  8
EBENE_1
  6
CONTINUOUS
 10
-0.320752
 20
0.109937
  0
VERTEX
  8
EBENE_1
  6
CONTINUOUS
 10
-0.320752
 20
0.503953
  0
VERTEX
  8
EBENE_1
  6
CONTINUOUS
 10
-0.130756
 20
0.503953
  0
VERTEX
  8
EBENE_1
  6
CONTINUOUS
 10
-0.130756
 20
0.359150
  0
VERTEX
  8
EBENE_1
  6
CONTINUOUS
 10
0.137252
 20
0.359150
  0
VERTEX
  8
EBENE_1
  6
CONTINUOUS
 10
0.137252
 20
0.503953
  0
VERTEX
  8
EBENE_1
  6
CONTINUOUS
 10
0.322799
 20
0.503953
  0
VERTEX
  8
EBENE_1
  6
CONTINUOUS
 10
0.322799
 20
0.110748
  0
VERTEX
  8
EBENE_1
  6
CONTINUOUS
 10
0.137252
 20
0.110748
  0
VERTEX
  8
EBENE_1
  6
CONTINUOUS
 10
0.137252
 20
0.263909
  0
SEQEND
  8
0
  0
POLYLINE
  8
EBENE_1
  6
CONTINUOUS
 66
     1
 40
0.003000
 41
0.003000
 70
     1
  0
VERTEX
  8
EBENE_1
  6
CONTINUOUS
 10
-0.131516
 20
-0.261425
  0
VERTEX
  8
EBENE_1
  6
CONTINUOUS
 10
0.081697
 20
-0.099969
  0
VERTEX
  8
EBENE_1
  6
CONTINUOUS
 10
0.302835
 20
-0.099969
  0
VERTEX
  8
EBENE_1
  6
CONTINUOUS
 10
0.079961
 20
-0.292134
  0
VERTEX
  8
EBENE_1
  6
CONTINUOUS
 10
0.321390
 20
-0.499161
  0
VERTEX
  8
EBENE_1
  6
CONTINUOUS
 10
0.089945
 20
-0.499161
  0
VERTEX
  8
EBENE_1
  6
CONTINUOUS
 10
-0.131516
 20
-0.335429
  0
VERTEX
  8
EBENE_1
  6
CONTINUOUS
 10
-0.131516
 20
-0.499272
  0
VERTEX
  8
EBENE_1
  6
CONTINUOUS
 10
-0.320862
 20
-0.499272
  0
VERTEX
  8
EBENE_1
  6
CONTINUOUS
 10
-0.320752
 20
-0.099969
  0
VERTEX
  8
EBENE_1
  6
CONTINUOUS
 10
-0.131516
 20
-0.099969
  0
VERTEX
  8
EBENE_1
  6
CONTINUOUS
 10
-0.131516
 20
-0.261642
  0
SEQEND
  8
0
  0
POLYLINE
  8
EBENE_1
  6
CONTINUOUS
 66
     1
 40
0.003000
 41
0.003000
 70
     1
  0
VERTEX
  8
EBENE_1
  6
CONTINUOUS
 10
0.510843
 20
-0.506543
  0
VERTEX
  8
EBENE_1
  6
CONTINUOUS
 10
0.500554
 20
-0.516618
  0
VERTEX
  8
EBENE_1
  6
CONTINUOUS
 10
0.490101
 20
-0.526463
  0
VERTEX
  8
EBENE_1
  6
CONTINUOUS
 10
0.479485
 20
-0.536076
  0
VERTEX
  8
EBENE_1
  6
CONTINUOUS
 10
0.468711
 20
-0.545458
  0
VERTEX
  8
EBENE_1
  6
CONTINUOUS
 10
0.457782
 20
-0.554606
  0
VERTEX
  8
EBENE_1
  6
CONTINUOUS
 10
0.446700
 20
-0.563519
  0
VERTEX
  8
EBENE_1
  6
CONTINUOUS
 10
0.435469
 20
-0.572196
  0
VERTEX
  8
EBENE_1
  6
CONTINUOUS
 10
0.424092
 20
-0.580636
  0
VERTEX
  8
EBENE_1
  6
CONTINUOUS
 10
0.412572
 20
-0.588836
  0
VERTEX
  8
EBENE_1
  6
CONTINUOUS
 10
0.400912
 20
-0.596797
  0
VERTEX
  8
EBENE_1
  6
CONTINUOUS
 10
0.389115
 20
-0.604516
  0
VERTEX
  8
EBENE_1
  6
CONTINUOUS
 10
0.377185
 20
-0.611992
  0
VERTEX
  8
EBENE_1
  6
CONTINUOUS
 10
0.365124
 20
-0.619224
  0
VERTEX
  8
EBENE_1
  6
CONTINUOUS
 10
0.352936
 20
-0.626210
  0
VERTEX
  8
EBENE_1
  6
CONTINUOUS
 10
0.340623
 20
-0.632950
  0
VERTEX
  8
EBENE_1
  6
CONTINUOUS
 10
0.328190
 20
-0.639442
  0
VERTEX
  8
EBENE_1
  6
CONTINUOUS
 10
0.315639
 20
-0.645684
  0
VERTEX
  8
EBENE_1
  6
CONTINUOUS
 10
0.302973
 20
-0.651675
  0
VERTEX
  8
EBENE_1
  6
CONTINUOUS
 10
0.290195
 20
-0.657415
  0
VERTEX
  8
EBENE_1
  6
CONTINUOUS
 10
0.277309
 20
-0.662901
  0
VERTEX
  8
EBENE_1
  6
CONTINUOUS
 10
0.264317
 20
-0.668132
  0
VERTEX
  8
EBENE_1
  6
CONTINUOUS
 10
0.251223
 20
-0.673107
  0
VERTEX
  8
EBENE_1
  6
CONTINUOUS
 10
0.238030
 20
-0.677825
  0
VERTEX
  8
EBENE_1
  6
CONTINUOUS
 10
0.224741
 20
-0.682284
  0
VERTEX
  8
EBENE_1
  6
CONTINUOUS
 10
0.211359
 20
-0.686483
  0
VERTEX
  8
EBENE_1
  6
CONTINUOUS
 10
0.197887
 20
-0.690421
  0
VERTEX
  8
EBENE_1
  6
CONTINUOUS
 10
0.184329
 20
-0.694096
  0
VERTEX
  8
EBENE_1
  6
CONTINUOUS
 10
0.170687
 20
-0.697507
  0
VERTEX
  8
EBENE_1
  6
CONTINUOUS
 10
0.156965
 20
-0.700653
  0
VERTEX
  8
EBENE_1
  6
CONTINUOUS
 10
0.143166
 20
-0.703532
  0
VERTEX
  8
EBENE_1
  6
CONTINUOUS
 10
0.129293
 20
-0.706144
  0
VERTEX
  8
EBENE_1
  6
CONTINUOUS
 10
0.115349
 20
-0.708486
  0
VERTEX
  8
EBENE_1
  6
CONTINUOUS
 10
0.101337
 20
-0.710557
  0
VERTEX
  8
EBENE_1
  6
CONTINUOUS
 10
0.087260
 20
-0.712357
  0
VERTEX
  8
EBENE_1
  6
CONTINUOUS
 10
0.073122
 20
-0.713883
  0
VERTEX
  8
EBENE_1
  6
CONTINUOUS
 10
0.058926
 20
-0.715135
  0
VERTEX
  8
EBENE_1
  6
CONTINUOUS
 10
0.044674
 20
-0.716111
  0
VERTEX
  8
EBENE_1
  6
CONTINUOUS
 10
0.030370
 20
-0.716810
  0
VERTEX
  8
EBENE_1
  6
CONTINUOUS
 10
0.016017
 20
-0.717230
  0
VERTEX
  8
EBENE_1
  6
CONTINUOUS
 10
0.001618
 20
-0.717370
  0
VERTEX
  8
EBENE_1
  6
CONTINUOUS
 10
0.001618
 20
-0.717370
  0
VERTEX
  8
EBENE_1
  6
CONTINUOUS
 10
-0.012718
 20
-0.717227
  0
VERTEX
  8
EBENE_1
  6
CONTINUOUS
 10
-0.027026
 20
-0.716800
  0
VERTEX
  8
EBENE_1
  6
CONTINUOUS
 10
-0.041300
 20
-0.716090
  0
VERTEX
  8
EBENE_1
  6
CONTINUOUS
 10
-0.055538
 20
-0.715099
  0
VERTEX
  8
EBENE_1
  6
CONTINUOUS
 10
-0.069734
 20
-0.713827
  0
VERTEX
  8
EBENE_1
  6
CONTINUOUS
 10
-0.083885
 20
-0.712276
  0
VERTEX
  8
EBENE_1
  6
CONTINUOUS
 10
-0.097988
 20
-0.710449
  0
VERTEX
  8
EBENE_1
  6
CONTINUOUS
 10
-0.112037
 20
-0.708345
  0
VERTEX
  8
EBENE_1
  6
CONTINUOUS
 10
-0.126030
 20
-0.705967
  0
VERTEX
  8
EBENE_1
  6
CONTINUOUS
 10
-0.139961
 20
-0.703316
  0
VERTEX
  8
EBENE_1
  6
CONTINUOUS
 10
-0.153828
 20
-0.700393
  0
VERTEX
  8
EBENE_1
  6
CONTINUOUS
 10
-0.167626
 20
-0.697200
  0
VERTEX
  8
EBENE_1
  6
CONTINUOUS
 10
-0.181351
 20
-0.693738
  0
VERTEX
  8
EBENE_1
  6
CONTINUOUS
 10
-0.195000
 20
-0.690009
  0
VERTEX
  8
EBENE_1
  6
CONTINUOUS
 10
-0.208567
 20
-0.686014
  0
VERTEX
  8
EBENE_1
  6
CONTINUOUS
 10
-0.222050
 20
-0.681755
  0
VERTEX
  8
EBENE_1
  6
CONTINUOUS
 10
-0.235444
 20
-0.677232
  0
VERTEX
  8
EBENE_1
  6
CONTINUOUS
 10
-0.248745
 20
-0.672448
  0
VERTEX
  8
EBENE_1
  6
CONTINUOUS
 10
-0.261950
 20
-0.667404
  0
VERTEX
  8
EBENE_1
  6
CONTINUOUS
 10
-0.275054
 20
-0.662101
  0
VERTEX
  8
EBENE_1
  6
CONTINUOUS
 10
-0.288053
 20
-0.656540
  0
VERTEX
  8
EBENE_1
  6
CONTINUOUS
 10
-0.300944
 20
-0.650724
  0
VERTEX
  8
EBENE_1
  6
CONTINUOUS
 10
-0.313722
 20
-0.644653
  0
VERTEX
  8
EBENE_1
  6
CONTINUOUS
 10
-0.326383
 20
-0.638329
  0
VERTEX
  8
EBENE_1
  6
CONTINUOUS
 10
-0.338924
 20
-0.631753
  0
VERTEX
  8
EBENE_1
  6
CONTINUOUS
 10
-0.351340
 20
-0.624927
  0
VERTEX
  8
EBENE_1
  6
CONTINUOUS
 10
-0.363628
 20
-0.617852
  0
VERTEX
  8
EBENE_1
  6
CONTINUOUS
 10
-0.375784
 20
-0.610530
  0
VERTEX
  8
EBENE_1
  6
CONTINUOUS
 10
-0.387802
 20
-0.602962
  0
VERTEX
  8
EBENE_1
  6
CONTINUOUS
 10
-0.399681
 20
-0.595149
  0
VERTEX
  8
EBENE_1
  6
CONTINUOUS
 10
-0.411415
 20
-0.587093
  0
VERTEX
  8
EBENE_1
  6
CONTINUOUS
 10
-0.423001
 20
-0.578796
  0
VERTEX
  8
EBENE_1
  6
CONTINUOUS
 10
-0.434434
 20
-0.570258
  0
VERTEX
  8
EBENE_1
  6
CONTINUOUS
 10
-0.445711
 20
-0.561481
  0
VERTEX
  8
EBENE_1
  6
CONTINUOUS
 10
-0.456827
 20
-0.552467
  0
VERTEX
  8
EBENE_1
  6
CONTINUOUS
 10
-0.467780
 20
-0.543217
  0
VERTEX
  8
EBENE_1
  6
CONTINUOUS
 10
-0.467780
 20
-0.543217
  0
VERTEX
  8
EBENE_1
  6
CONTINUOUS
 10
-0.478430
 20
-0.533852
  0
VERTEX
  8
EBENE_1
  6
CONTINUOUS
 10
-0.488880
 20
-0.524295
  0
VERTEX
  8
EBENE_1
  6
CONTINUOUS
 10
-0.499126
 20
-0.514551
  0
VERTEX
  8
EBENE_1
  6
CONTINUOUS
 10
-0.509166
 20
-0.504623
  0
VERTEX
  8
EBENE_1
  6
CONTINUOUS
 10
-0.518998
 20
-0.494515
  0
VERTEX
  8
EBENE_1
  6
CONTINUOUS
 10
-0.528621
 20
-0.484230
  0
VERTEX
  8
EBENE_1
  6
CONTINUOUS
 10
-0.538031
 20
-0.473771
  0
VERTEX
  8
EBENE_1
  6
CONTINUOUS
 10
-0.547227
 20
-0.463143
  0
VERTEX
  8
EBENE_1
  6
CONTINUOUS
 10
-0.556208
 20
-0.452348
  0
VERTEX
  8
EBENE_1
  6
CONTINUOUS
 10
-0.564970
 20
-0.441392
  0
VERTEX
  8
EBENE_1
  6
CONTINUOUS
 10
-0.573511
 20
-0.430276
  0
VERTEX
  8
EBENE_1
  6
CONTINUOUS
 10
-0.581830
 20
-0.419006
  0
VERTEX
  8
EBENE_1
  6
CONTINUOUS
 10
-0.589925
 20
-0.407584
  0
VERTEX
  8
EBENE_1
  6
CONTINUOUS
 10
-0.597793
 20
-0.396014
  0
VERTEX
  8
EBENE_1
  6
CONTINUOUS
 10
-0.605432
 20
-0.384299
  0
VERTEX
  8
EBENE_1
  6
CONTINUOUS
 10
-0.612841
 20
-0.372444
  0
VERTEX
  8
EBENE_1
  6
CONTINUOUS
 10
-0.620016
 20
-0.360452
  0
VERTEX
  8
EBENE_1
  6
CONTINUOUS
 10
-0.626957
 20
-0.348326
  0
VERTEX
  8
EBENE_1
  6
CONTINUOUS
 10
-0.633660
 20
-0.336071
  0
VERTEX
  8
EBENE_1
  6
CONTINUOUS
 10
-0.640124
 20
-0.323689
  0
VERTEX
  8
EBENE_1
  6
CONTINUOUS
 10
-0.646347
 20
-0.311185
  0
VERTEX
  8
EBENE_1
  6
CONTINUOUS
 10
-0.652327
 20
-0.298561
  0
VERTEX
  8
EBENE_1
  6
CONTINUOUS
 10
-0.658061
 20
-0.285822
  0
VERTEX
  8
EBENE_1
  6
CONTINUOUS
 10
-0.663548
 20
-0.272972
  0
VERTEX
  8
EBENE_1
  6
CONTINUOUS
 10
-0.668785
 20
-0.260013
  0
VERTEX
  8
EBENE_1
  6
CONTINUOUS
 10
-0.673770
 20
-0.246950
  0
VERTEX
  8
EBENE_1
  6
CONTINUOUS
 10
-0.678501
 20
-0.233786
  0
VERTEX
  8
EBENE_1
  6
CONTINUOUS
 10
-0.682977
 20
-0.220524
  0
VERTEX
  8
EBENE_1
  6
CONTINUOUS
 10
-0.687194
 20
-0.207169
  0
VERTEX
  8
EBENE_1
  6
CONTINUOUS
 10
-0.691151
 20
-0.193724
  0
VERTEX
  8
EBENE_1
  6
CONTINUOUS
 10
-0.694846
 20
-0.180192
  0
VERTEX
  8
EBENE_1
  6
CONTINUOUS
 10
-0.698277
 20
-0.166577
  0
VERTEX
  8
EBENE_1
  6
CONTINUOUS
 10
-0.701441
 20
-0.152883
  0
VERTEX
  8
EBENE_1
  6
CONTINUOUS
 10
-0.704337
 20
-0.139114
  0
VERTEX
  8
EBENE_1
  6
CONTINUOUS
 10
-0.706962
 20
-0.125272
  0
VERTEX
  8
EBENE_1
  6
CONTINUOUS
 10
-0.709315
 20
-0.111362
  0
VERTEX
  8
EBENE_1
  6
CONTINUOUS
 10
-0.709315
 20
-0.111362
  0
VERTEX
  8
EBENE_1
  6
CONTINUOUS
 10
-0.655386
 20
-0.102571
  0
VERTEX
  8
EBENE_1
  6
CONTINUOUS
 10
-0.652987
 20
-0.116610
  0
VERTEX
  8
EBENE_1
  6
CONTINUOUS
 10
-0.650291
 20
-0.130571
  0
VERTEX
  8
EBENE_1
  6
CONTINUOUS
 10
-0.647299
 20
-0.144450
  0
VERTEX
  8
EBENE_1
  6
CONTINUOUS
 10
-0.644014
 20
-0.158243
  0
VERTEX
  8
EBENE_1
  6
CONTINUOUS
 10
-0.640439
 20
-0.171946
  0
VERTEX
  8
EBENE_1
  6
CONTINUOUS
 10
-0.636576
 20
-0.185554
  0
VERTEX
  8
EBENE_1
  6
CONTINUOUS
 10
-0.632427
 20
-0.199063
  0
VERTEX
  8
EBENE_1
  6
CONTINUOUS
 10
-0.627995
 20
-0.212470
  0
VERTEX
  8
EBENE_1
  6
CONTINUOUS
 10
-0.623282
 20
-0.225769
  0
VERTEX
  8
EBENE_1
  6
CONTINUOUS
 10
-0.618291
 20
-0.238957
  0
VERTEX
  8
EBENE_1
  6
CONTINUOUS
 10
-0.613024
 20
-0.252029
  0
VERTEX
  8
EBENE_1
  6
CONTINUOUS
 10
-0.607483
 20
-0.264982
  0
VERTEX
  8
EBENE_1
  6
CONTINUOUS
 10
-0.601671
 20
-0.277811
  0
VERTEX
  8
EBENE_1
  6
CONTINUOUS
 10
-0.595590
 20
-0.290511
  0
VERTEX
  8
EBENE_1
  6
CONTINUOUS
 10
-0.589243
 20
-0.303079
  0
VERTEX
  8
EBENE_1
  6
CONTINUOUS
 10
-0.582632
 20
-0.315511
  0
VERTEX
  8
EBENE_1
  6
CONTINUOUS
 10
-0.575759
 20
-0.327802
  0
VERTEX
  8
EBENE_1
  6
CONTINUOUS
 10
-0.568627
 20
-0.339948
  0
VERTEX
  8
EBENE_1
  6
CONTINUOUS
 10
-0.561238
 20
-0.351944
  0
VERTEX
  8
EBENE_1
  6
CONTINUOUS
 10
-0.553595
 20
-0.363787
  0
VERTEX
  8
EBENE_1
  6
CONTINUOUS
 10
-0.545701
 20
-0.375473
  0
VERTEX
  8
EBENE_1
  6
CONTINUOUS
 10
-0.537556
 20
-0.386997
  0
VERTEX
  8
EBENE_1
  6
CONTINUOUS
 10
-0.529165
 20
-0.398355
  0
VERTEX
  8
EBENE_1
  6
CONTINUOUS
 10
-0.520528
 20
-0.409542
  0
VERTEX
  8
EBENE_1
  6
CONTINUOUS
 10
-0.511650
 20
-0.420556
  0
VERTEX
  8
EBENE_1
  6
CONTINUOUS
 10
-0.502532
 20
-0.431390
  0
VERTEX
  8
EBENE_1
  6
CONTINUOUS
 10
-0.493176
 20
-0.442042
  0
VERTEX
  8
EBENE_1
  6
CONTINUOUS
 10
-0.483585
 20
-0.452507
  0
VERTEX
  8
EBENE_1
  6
CONTINUOUS
 10
-0.473761
 20
-0.462780
  0
VERTEX
  8
EBENE_1
  6
CONTINUOUS
 10
-0.463708
 20
-0.472858
  0
VERTEX
  8
EBENE_1
  6
CONTINUOUS
 10
-0.453426
 20
-0.482737
  0
VERTEX
  8
EBENE_1
  6
CONTINUOUS
 10
-0.442919
 20
-0.492411
  0
VERTEX
  8
EBENE_1
  6
CONTINUOUS
 10
-0.432189
 20
-0.501878
  0
VERTEX
  8
EBENE_1
  6
CONTINUOUS
 10
-0.432189
 20
-0.501878
  0
VERTEX
  8
EBENE_1
  6
CONTINUOUS
 10
-0.421147
 20
-0.511179
  0
VERTEX
  8
EBENE_1
  6
CONTINUOUS
 10
-0.409924
 20
-0.520222
  0
VERTEX
  8
EBENE_1
  6
CONTINUOUS
 10
-0.398525
 20
-0.529004
  0
VERTEX
  8
EBENE_1
  6
CONTINUOUS
 10
-0.386955
 20
-0.537524
  0
VERTEX
  8
EBENE_1
  6
CONTINUOUS
 10
-0.375217
 20
-0.545779
  0
VERTEX
  8
EBENE_1
  6
CONTINUOUS
 10
-0.363318
 20
-0.553769
  0
VERTEX
  8
EBENE_1
  6
CONTINUOUS
 10
-0.351262
 20
-0.561492
  0
VERTEX
  8
EBENE_1
  6
CONTINUOUS
 10
-0.339053
 20
-0.568945
  0
VERTEX
  8
EBENE_1
  6
CONTINUOUS
 10
-0.326697
 20
-0.576127
  0
VERTEX
  8
EBENE_1
  6
CONTINUOUS
 10
-0.314198
 20
-0.583037
  0
VERTEX
  8
EBENE_1
  6
CONTINUOUS
 10
-0.301561
 20
-0.589672
  0
VERTEX
  8
EBENE_1
  6
CONTINUOUS
 10
-0.288791
 20
-0.596031
  0
VERTEX
  8
EBENE_1
  6
CONTINUOUS
 10
-0.275893
 20
-0.602112
  0
VERTEX
  8
EBENE_1
  6
CONTINUOUS
 10
-0.262872
 20
-0.607913
  0
VERTEX
  8
EBENE_1
  6
CONTINUOUS
 10
-0.249731
 20
-0.613433
  0
VERTEX
  8
EBENE_1
  6
CONTINUOUS
 10
-0.236477
 20
-0.618669
  0
VERTEX
  8
EBENE_1
  6
CONTINUOUS
 10
-0.223114
 20
-0.623621
  0
VERTEX
  8
EBENE_1
  6
CONTINUOUS
 10
-0.209646
 20
-0.628286
  0
VERTEX
  8
EBENE_1
  6
CONTINUOUS
 10
-0.196079
 20
-0.632663
  0
VERTEX
  8
EBENE_1
  6
CONTINUOUS
 10
-0.182417
 20
-0.636750
  0
VERTEX
  8
EBENE_1
  6
CONTINUOUS
 10
-0.168665
 20
-0.640545
  0
VERTEX
  8
EBENE_1
  6
CONTINUOUS
 10
-0.154829
 20
-0.644046
  0
VERTEX
  8
EBENE_1
  6
CONTINUOUS
 10
-0.140911
 20
-0.647252
  0
VERTEX
  8
EBENE_1
  6
CONTINUOUS
 10
-0.126919
 20
-0.650161
  0
VERTEX
  8
EBENE_1
  6
CONTINUOUS
 10
-0.112856
 20
-0.652771
  0
VERTEX
  8
EBENE_1
  6
CONTINUOUS
 10
-0.098727
 20
-0.655080
  0
VERTEX
  8
EBENE_1
  6
CONTINUOUS
 10
-0.084536
 20
-0.657087
  0
VERTEX
  8
EBENE_1
  6
CONTINUOUS
 10
-0.070290
 20
-0.658791
  0
VERTEX
  8
EBENE_1
  6
CONTINUOUS
 10
-0.055992
 20
-0.660188
  0
VERTEX
  8
EBENE_1
  6
CONTINUOUS
 10
-0.041648
 20
-0.661278
  0
VERTEX
  8
EBENE_1
  6
CONTINUOUS
 10
-0.027261
 20
-0.662058
  0
VERTEX
  8
EBENE_1
  6
CONTINUOUS
 10
-0.012838
 20
-0.662528
  0
VERTEX
  8
EBENE_1
  6
CONTINUOUS
 10
0.001618
 20
-0.662685
  0
VERTEX
  8
EBENE_1
  6
CONTINUOUS
 10
0.001618
 20
-0.662685
  0
VERTEX
  8
EBENE_1
  6
CONTINUOUS
 10
0.016005
 20
-0.662534
  0
VERTEX
  8
EBENE_1
  6
CONTINUOUS
 10
0.030343
 20
-0.662081
  0
VERTEX
  8
EBENE_1
  6
CONTINUOUS
 10
0.044627
 20
-0.661328
  0
VERTEX
  8
EBENE_1
  6
CONTINUOUS
 10
0.058854
 20
-0.660277
  0
VERTEX
  8
EBENE_1
  6
CONTINUOUS
 10
0.073021
 20
-0.658929
  0
VERTEX
  8
EBENE_1
  6
CONTINUOUS
 10
0.087122
 20
-0.657285
  0
VERTEX
  8
EBENE_1
  6
CONTINUOUS
 10
0.101156
 20
-0.655347
  0
VERTEX
  8
EBENE_1
  6
CONTINUOUS
 10
0.115119
 20
-0.653117
  0
VERTEX
  8
EBENE_1
  6
CONTINUOUS
 10
0.129005
 20
-0.650595
  0
VERTEX
  8
EBENE_1
  6
CONTINUOUS
 10
0.142813
 20
-0.647784
  0
VERTEX
  8
EBENE_1
  6
CONTINUOUS
 10
0.156538
 20
-0.644685
  0
VERTEX
  8
EBENE_1
  6
CONTINUOUS
 10
0.170177
 20
-0.641299
  0
VERTEX
  8
EBENE_1
  6
CONTINUOUS
 10
0.183726
 20
-0.637628
  0
VERTEX
  8
EBENE_1
  6
CONTINUOUS
 10
0.197182
 20
-0.633673
  0
VERTEX
  8
EBENE_1
  6
CONTINUOUS
 10
0.210540
 20
-0.629436
  0
VERTEX
  8
EBENE_1
  6
CONTINUOUS
 10
0.223797
 20
-0.624918
  0
VERTEX
  8
EBENE_1
  6
CONTINUOUS
 10
0.236950
 20
-0.620120
  0
VERTEX
  8
EBENE_1
  6
CONTINUOUS
 10
0.249994
 20
-0.615045
  0
VERTEX
  8
EBENE_1
  6
CONTINUOUS
 10
0.262927
 20
-0.609694
  0
VERTEX
  8
EBENE_1
  6
CONTINUOUS
 10
0.275744
 20
-0.604068
  0
VERTEX
  8
EBENE_1
  6
CONTINUOUS
 10
0.288442
 20
-0.598168
  0
VERTEX
  8
EBENE_1
  6
CONTINUOUS
 10
0.301018
 20
-0.591997
  0
VERTEX
  8
EBENE_1
  6
CONTINUOUS
 10
0.313466
 20
-0.585555
  0
VERTEX
  8
EBENE_1
  6
CONTINUOUS
 10
0.325785
 20
-0.578844
  0
VERTEX
  8
EBENE_1
  6
CONTINUOUS
 10
0.337970
 20
-0.571866
  0
VERTEX
  8
EBENE_1
  6
CONTINUOUS
 10
0.350018
 20
-0.564621
  0
VERTEX
  8
EBENE_1
  6
CONTINUOUS
 10
0.361924
 20
-0.557113
  0
VERTEX
  8
EBENE_1
  6
CONTINUOUS
 10
0.373686
 20
-0.549341
  0
VERTEX
  8
EBENE_1
  6
CONTINUOUS
 10
0.385299
 20
-0.541308
  0
VERTEX
  8
EBENE_1
  6
CONTINUOUS
 10
0.396761
 20
-0.533014
  0
VERTEX
  8
EBENE_1
  6
CONTINUOUS
 10
0.408067
 20
-0.524462
  0
VERTEX
  8
EBENE_1
  6
CONTINUOUS
 10
0.419213
 20
-0.515653
  0
VERTEX
  8
EBENE_1
  6
CONTINUOUS
 10
0.430197
 20
-0.506589
  0
VERTEX
  8
EBENE_1
  6
CONTINUOUS
 10
0.441014
 20
-0.497270
  0
VERTEX
  8
EBENE_1
  6
CONTINUOUS
 10
0.451661
 20
-0.487698
  0
VERTEX
  8
EBENE_1
  6
CONTINUOUS
 10
0.462134
 20
-0.477876
  0
VERTEX
  8
EBENE_1
  6
CONTINUOUS
 10
0.472429
 20
-0.467803
  0
VERTEX
  8
EBENE_1
  6
CONTINUOUS
 10
0.472429
 20
-0.467803
  0
VERTEX
  8
EBENE_1
  6
CONTINUOUS
 10
0.482553
 20
-0.457436
  0
VERTEX
  8
EBENE_1
  6
CONTINUOUS
 10
0.492426
 20
-0.446893
  0
VERTEX
  8
EBENE_1
  6
CONTINUOUS
 10
0.502046
 20
-0.436176
  0
VERTEX
  8
EBENE_1
  6
CONTINUOUS
 10
0.511412
 20
-0.425289
  0
VERTEX
  8
EBENE_1
  6
CONTINUOUS
 10
0.520522
 20
-0.414236
  0
VERTEX
  8
EBENE_1
  6
CONTINUOUS
 10
0.529375
 20
-0.403021
  0
VERTEX
  8
EBENE_1
  6
CONTINUOUS
 10
0.537969
 20
-0.391647
  0
VERTEX
  8
EBENE_1
  6
CONTINUOUS
 10
0.546302
 20
-0.380118
  0
VERTEX
  8
EBENE_1
  6
CONTINUOUS
 10
0.554374
 20
-0.368438
  0
VERTEX
  8
EBENE_1
  6
CONTINUOUS
 10
0.562182
 20
-0.356610
  0
VERTEX
  8
EBENE_1
  6
CONTINUOUS
 10
0.569726
 20
-0.344638
  0
VERTEX
  8
EBENE_1
  6
CONTINUOUS
 10
0.577003
 20
-0.332526
  0
VERTEX
  8
EBENE_1
  6
CONTINUOUS
 10
0.584013
 20
-0.320277
  0
VERTEX
  8
EBENE_1
  6
CONTINUOUS
 10
0.590753
 20
-0.307896
  0
VERTEX
  8
EBENE_1
  6
CONTINUOUS
 10
0.597222
 20
-0.295384
  0
VERTEX
  8
EBENE_1
  6
CONTINUOUS
 10
0.603419
 20
-0.282748
  0
VERTEX
  8
EBENE_1
  6
CONTINUOUS
 10
0.609342
 20
-0.269989
  0
VERTEX
  8
EBENE_1
  6
CONTINUOUS
 10
0.614990
 20
-0.257112
  0
VERTEX
  8
EBENE_1
  6
CONTINUOUS
 10
0.620361
 20
-0.244120
  0
VERTEX
  8
EBENE_1
  6
CONTINUOUS
 10
0.625454
 20
-0.231017
  0
VERTEX
  8
EBENE_1
  6
CONTINUOUS
 10
0.630266
 20
-0.217808
  0
VERTEX
  8
EBENE_1
  6
CONTINUOUS
 10
0.634798
 20
-0.204494
  0
VERTEX
  8
EBENE_1
  6
CONTINUOUS
 10
0.639046
 20
-0.191080
  0
VERTEX
  8
EBENE_1
  6
CONTINUOUS
 10
0.643010
 20
-0.177571
  0
VERTEX
  8
EBENE_1
  6
CONTINUOUS
 10
0.646689
 20
-0.163968
  0
VERTEX
  8
EBENE_1
  6
CONTINUOUS
 10
0.650080
 20
-0.150277
  0
VERTEX
  8
EBENE_1
  6
CONTINUOUS
 10
0.653182
 20
-0.136500
  0
VERTEX
  8
EBENE_1
  6
CONTINUOUS
 10
0.655993
 20
-0.122642
  0
VERTEX
  8
EBENE_1
  6
CONTINUOUS
 10
0.658513
 20
-0.108706
  0
VERTEX
  8
EBENE_1
  6
CONTINUOUS
 10
0.660739
 20
-0.094695
  0
VERTEX
  8
EBENE_1
  6
CONTINUOUS
 10
0.662671
 20
-0.080614
  0
VERTEX
  8
EBENE_1
  6
CONTINUOUS
 10
0.664306
 20
-0.066466
  0
VERTEX
  8
EBENE_1
  6
CONTINUOUS
 10
0.665643
 20
-0.052255
  0
VERTEX
  8
EBENE_1
  6
CONTINUOUS
 10
0.666681
 20
-0.037984
  0
VERTEX
  8
EBENE_1
  6
CONTINUOUS
 10
0.667417
 20
-0.023657
  0
VERTEX
  8
EBENE_1
  6
CONTINUOUS
 10
0.667417
 20
-0.023657
  0
VERTEX
  8
EBENE_1
  6
CONTINUOUS
 10
0.004874
 20
-0.023957
  0
VERTEX
  8
EBENE_1
  6
CONTINUOUS
 10
-0.691303
 20
-0.024173
  0
VERTEX
  8
EBENE_1
  6
CONTINUOUS
 10
-0.698364
 20
-0.024168
  0
VERTEX
  8
EBENE_1
  6
CONTINUOUS
 10
-0.711478
 20
-0.024134
  0
VERTEX
  8
EBENE_1
  6
CONTINUOUS
 10
-0.718539
 20
-0.024039
  0
VERTEX
  8
EBENE_1
  6
CONTINUOUS
 10
-0.718539
 20
0.000020
  0
VERTEX
  8
EBENE_1
  6
CONTINUOUS
 10
-0.718539
 20
0.003327
  0
VERTEX
  8
EBENE_1
  6
CONTINUOUS
 10
-0.718399
 20
0.017725
  0
VERTEX
  8
EBENE_1
  6
CONTINUOUS
 10
-0.717980
 20
0.032078
  0
VERTEX
  8
EBENE_1
  6
CONTINUOUS
 10
-0.717282
 20
0.046381
  0
VERTEX
  8
EBENE_1
  6
CONTINUOUS
 10
-0.716307
 20
0.060631
  0
VERTEX
  8
EBENE_1
  6
CONTINUOUS
 10
-0.715056
 20
0.074826
  0
VERTEX
  8
EBENE_1
  6
CONTINUOUS
 10
-0.713531
 20
0.088962
  0
VERTEX
  8
EBENE_1
  6
CONTINUOUS
 10
-0.711733
 20
0.103037
  0
VERTEX
  8
EBENE_1
  6
CONTINUOUS
 10
-0.709663
 20
0.117047
  0
VERTEX
  8
EBENE_1
  6
CONTINUOUS
 10
-0.707323
 20
0.130988
  0
VERTEX
  8
EBENE_1
  6
CONTINUOUS
 10
-0.704713
 20
0.144859
  0
VERTEX
  8
EBENE_1
  6
CONTINUOUS
 10
-0.701835
 20
0.158655
  0
VERTEX
  8
EBENE_1
  6
CONTINUOUS
 10
-0.698691
 20
0.172375
  0
VERTEX
  8
EBENE_1
  6
CONTINUOUS
 10
-0.695281
 20
0.186013
  0
VERTEX
  8
EBENE_1
  6
CONTINUOUS
 10
-0.691606
 20
0.199569
  0
VERTEX
  8
EBENE_1
  6
CONTINUOUS
 10
-0.687669
 20
0.213037
  0
VERTEX
  8
EBENE_1
  6
CONTINUOUS
 10
-0.683470
 20
0.226416
  0
VERTEX
  8
EBENE_1
  6
CONTINUOUS
 10
-0.679010
 20
0.239702
  0
VERTEX
  8
EBENE_1
  6
CONTINUOUS
 10
-0.674292
 20
0.252892
  0
VERTEX
  8
EBENE_1
  6
CONTINUOUS
 10
-0.669315
 20
0.265983
  0
VERTEX
  8
EBENE_1
  6
CONTINUOUS
 10
-0.664082
 20
0.278972
  0
VERTEX
  8
EBENE_1
  6
CONTINUOUS
 10
-0.658594
 20
0.291856
  0
VERTEX
  8
EBENE_1
  6
CONTINUOUS
 10
-0.652851
 20
0.304632
  0
VERTEX
  8
EBENE_1
  6
CONTINUOUS
 10
-0.646856
 20
0.317296
  0
VERTEX
  8
EBENE_1
  6
CONTINUOUS
 10
-0.640609
 20
0.329845
  0
VERTEX
  8
EBENE_1
  6
CONTINUOUS
 10
-0.634112
 20
0.342277
  0
VERTEX
  8
EBENE_1
  6
CONTINUOUS
 10
-0.627366
 20
0.354588
  0
VERTEX
  8
EBENE_1
  6
CONTINUOUS
 10
-0.620373
 20
0.366775
  0
VERTEX
  8
EBENE_1
  6
CONTINUOUS
 10
-0.613132
 20
0.378835
  0
VERTEX
  8
EBENE_1
  6
CONTINUOUS
 10
-0.605647
 20
0.390765
  0
VERTEX
  8
EBENE_1
  6
CONTINUOUS
 10
-0.597918
 20
0.402562
  0
VERTEX
  8
EBENE_1
  6
CONTINUOUS
 10
-0.589946
 20
0.414223
  0
VERTEX
  8
EBENE_1
  6
CONTINUOUS
 10
-0.581733
 20
0.425744
  0
VERTEX
  8
EBENE_1
  6
CONTINUOUS
 10
-0.573280
 20
0.437123
  0
VERTEX
  8
EBENE_1
  6
CONTINUOUS
 10
-0.564588
 20
0.448356
  0
VERTEX
  8
EBENE_1
  6
CONTINUOUS
 10
-0.555658
 20
0.459441
  0
VERTEX
  8
EBENE_1
  6
CONTINUOUS
 10
-0.546492
 20
0.470373
  0
VERTEX
  8
EBENE_1
  6
CONTINUOUS
 10
-0.537092
 20
0.481151
  0
VERTEX
  8
EBENE_1
  6
CONTINUOUS
 10
-0.527457
 20
0.491771
  0
VERTEX
  8
EBENE_1
  6
CONTINUOUS
 10
-0.517590
 20
0.502229
  0
VERTEX
  8
EBENE_1
  6
CONTINUOUS
 10
-0.507492
 20
0.512524
  0
VERTEX
  8
EBENE_1
  6
CONTINUOUS
 10
-0.507492
 20
0.512524
  0
VERTEX
  8
EBENE_1
  6
CONTINUOUS
 10
-0.497212
 20
0.522610
  0
VERTEX
  8
EBENE_1
  6
CONTINUOUS
 10
-0.486766
 20
0.532466
  0
VERTEX
  8
EBENE_1
  6
CONTINUOUS
 10
-0.476159
 20
0.542090
  0
VERTEX
  8
EBENE_1
  6
CONTINUOUS
 10
-0.465393
 20
0.551482
  0
VERTEX
  8
EBENE_1
  6
CONTINUOUS
 10
-0.454471
 20
0.560640
  0
VERTEX
  8
EBENE_1
  6
CONTINUOUS
 10
-0.443397
 20
0.569562
  0
VERTEX
  8
EBENE_1
  6
CONTINUOUS
 10
-0.432174
 20
0.578248
  0
VERTEX
  8
EBENE_1
  6
CONTINUOUS
 10
-0.420804
 20
0.586695
  0
VERTEX
  8
EBENE_1
  6
CONTINUOUS
 10
-0.409291
 20
0.594904
  0
VERTEX
  8
EBENE_1
  6
CONTINUOUS
 10
-0.397638
 20
0.602871
  0
VERTEX
  8
EBENE_1
  6
CONTINUOUS
 10
-0.385849
 20
0.610597
  0
VERTEX
  8
EBENE_1
  6
CONTINUOUS
 10
-0.373925
 20
0.618079
  0
VERTEX
  8
EBENE_1
  6
CONTINUOUS
 10
-0.361871
 20
0.625317
  0
VERTEX
  8
EBENE_1
  6
CONTINUOUS
 10
-0.349689
 20
0.632309
  0
VERTEX
  8
EBENE_1
  6
CONTINUOUS
 10
-0.337383
 20
0.639054
  0
VERTEX
  8
EBENE_1
  6
CONTINUOUS
 10
-0.324955
 20
0.645550
  0
VERTEX
  8
EBENE_1
  6
CONTINUOUS
 10
-0.312409
 20
0.651796
  0
VERTEX
  8
EBENE_1
  6
CONTINUOUS
 10
-0.299748
 20
0.657792
  0
VERTEX
  8
EBENE_1
  6
CONTINUOUS
 10
-0.286975
 20
0.663535
  0
VERTEX
  8
EBENE_1
  6
CONTINUOUS
 10
-0.274094
 20
0.669024
  0
VERTEX
  8
EBENE_1
  6
CONTINUOUS
 10
-0.261106
 20
0.674258
  0
VERTEX
  8
EBENE_1
  6
CONTINUOUS
 10
-0.248016
 20
0.679236
  0
VERTEX
  8
EBENE_1
  6
CONTINUOUS
 10
-0.234826
 20
0.683957
  0
VERTEX
  8
EBENE_1
  6
CONTINUOUS
 10
-0.221539
 20
0.688418
  0
VERTEX
  8
EBENE_1
  6
CONTINUOUS
 10
-0.208160
 20
0.692619
  0
VERTEX
  8
EBENE_1
  6
CONTINUOUS
 10
-0.194690
 20
0.696559
  0
VERTEX
  8
EBENE_1
  6
CONTINUOUS
 10
-0.181133
 20
0.700235
  0
VERTEX
  8
EBENE_1
  6
CONTINUOUS
 10
-0.167492
 20
0.703648
  0
VERTEX
  8
EBENE_1
  6
CONTINUOUS
 10
-0.153770
 20
0.706795
  0
VERTEX
  8
EBENE_1
  6
CONTINUOUS
 10
-0.139970
 20
0.709675
  0
VERTEX
  8
EBENE_1
  6
CONTINUOUS
 10
-0.126096
 20
0.712287
  0
VERTEX
  8
EBENE_1
  6
CONTINUOUS
 10
-0.112150
 20
0.714630
  0
VERTEX
  8
EBENE_1
  6
CONTINUOUS
 10
-0.098136
 20
0.716702
  0
VERTEX
  8
EBENE_1
  6
CONTINUOUS
 10
-0.084056
 20
0.718502
  0
VERTEX
  8
EBENE_1
  6
CONTINUOUS
 10
-0.069915
 20
0.720028
  0
VERTEX
  8
EBENE_1
  6
CONTINUOUS
 10
-0.055714
 20
0.721280
  0
VERTEX
  8
EBENE_1
  6
CONTINUOUS
 10
-0.041457
 20
0.722256
  0
VERTEX
  8
EBENE_1
  6
CONTINUOUS
 10
-0.027147
 20
0.722955
  0
VERTEX
  8
EBENE_1
  6
CONTINUOUS
 10
-0.012788
 20
0.723375
  0
VERTEX
  8
EBENE_1
  6
CONTINUOUS
 10
0.001618
 20
0.723516
  0
VERTEX
  8
EBENE_1
  6
CONTINUOUS
 10
0.001618
 20
0.723516
  0
VERTEX
  8
EBENE_1
  6
CONTINUOUS
 10
0.015982
 20
0.723372
  0
VERTEX
  8
EBENE_1
  6
CONTINUOUS
 10
0.030315
 20
0.722944
  0
VERTEX
  8
EBENE_1
  6
CONTINUOUS
 10
0.044615
 20
0.722230
  0
VERTEX
  8
EBENE_1
  6
CONTINUOUS
 10
0.058876
 20
0.721235
  0
VERTEX
  8
EBENE_1
  6
CONTINUOUS
 10
0.073096
 20
0.719958
  0
VERTEX
  8
EBENE_1
  6
CONTINUOUS
 10
0.087270
 20
0.718401
  0
VERTEX
  8
EBENE_1
  6
CONTINUOUS
 10
0.101394
 20
0.716567
  0
VERTEX
  8
EBENE_1
  6
CONTINUOUS
 10
0.115464
 20
0.714455
  0
VERTEX
  8
EBENE_1
  6
CONTINUOUS
 10
0.129477
 20
0.712068
  0
VERTEX
  8
EBENE_1
  6
CONTINUOUS
 10
0.143428
 20
0.709408
  0
VERTEX
  8
EBENE_1
  6
CONTINUOUS
 10
0.157314
 20
0.706475
  0
VERTEX
  8
EBENE_1
  6
CONTINUOUS
 10
0.171131
 20
0.703271
  0
VERTEX
  8
EBENE_1
  6
CONTINUOUS
 10
0.184874
 20
0.699798
  0
VERTEX
  8
EBENE_1
  6
CONTINUOUS
 10
0.198539
 20
0.696057
  0
VERTEX
  8
EBENE_1
  6
CONTINUOUS
 10
0.212124
 20
0.692050
  0
VERTEX
  8
EBENE_1
  6
CONTINUOUS
 10
0.225623
 20
0.687778
  0
VERTEX
  8
EBENE_1
  6
CONTINUOUS
 10
0.239034
 20
0.683242
  0
VERTEX
  8
EBENE_1
  6
CONTINUOUS
 10
0.252351
 20
0.678445
  0
VERTEX
  8
EBENE_1
  6
CONTINUOUS
 10
0.265571
 20
0.673387
  0
VERTEX
  8
EBENE_1
  6
CONTINUOUS
 10
0.278691
 20
0.668070
  0
VERTEX
  8
EBENE_1
  6
CONTINUOUS
 10
0.291705
 20
0.662496
  0
VERTEX
  8
EBENE_1
  6
CONTINUOUS
 10
0.304611
 20
0.656665
  0
VERTEX
  8
EBENE_1
  6
CONTINUOUS
 10
0.317404
 20
0.650580
  0
VERTEX
  8
EBENE_1
  6
CONTINUOUS
 10
0.330081
 20
0.644242
  0
VERTEX
  8
EBENE_1
  6
CONTINUOUS
 10
0.342637
 20
0.637652
  0
VERTEX
  8
EBENE_1
  6
CONTINUOUS
 10
0.355068
 20
0.630812
  0
VERTEX
  8
EBENE_1
  6
CONTINUOUS
 10
0.367371
 20
0.623724
  0
VERTEX
  8
EBENE_1
  6
CONTINUOUS
 10
0.379542
 20
0.616388
  0
VERTEX
  8
EBENE_1
  6
CONTINUOUS
 10
0.391576
 20
0.608807
  0
VERTEX
  8
EBENE_1
  6
CONTINUOUS
 10
0.403470
 20
0.600982
  0
VERTEX
  8
EBENE_1
  6
CONTINUOUS
 10
0.415220
 20
0.592914
  0
VERTEX
  8
EBENE_1
  6
CONTINUOUS
 10
0.426822
 20
0.584604
  0
VERTEX
  8
EBENE_1
  6
CONTINUOUS
 10
0.438272
 20
0.576055
  0
VERTEX
  8
EBENE_1
  6
CONTINUOUS
 10
0.449565
 20
0.567268
  0
VERTEX
  8
EBENE_1
  6
CONTINUOUS
 10
0.460699
 20
0.558244
  0
VERTEX
  8
EBENE_1
  6
CONTINUOUS
 10
0.471669
 20
0.548984
  0
VERTEX
  8
EBENE_1
  6
CONTINUOUS
 10
0.482329
 20
0.539601
  0
VERTEX
  8
EBENE_1
  6
CONTINUOUS
 10
0.492785
 20
0.530026
  0
VERTEX
  8
EBENE_1
  6
CONTINUOUS
 10
0.503035
 20
0.520263
  0
VERTEX
  8
EBENE_1
  6
CONTINUOUS
 10
0.513078
 20
0.510316
  0
VERTEX
  8
EBENE_1
  6
CONTINUOUS
 10
0.522912
 20
0.500189
  0
VERTEX
  8
EBENE_1
  6
CONTINUOUS
 10
0.532534
 20
0.489885
  0
VERTEX
  8
EBENE_1
  6
CONTINUOUS
 10
0.541942
 20
0.479407
  0
VERTEX
  8
EBENE_1
  6
CONTINUOUS
 10
0.551135
 20
0.468760
  0
VERTEX
  8
EBENE_1
  6
CONTINUOUS
 10
0.560111
 20
0.457948
  0
VERTEX
  8
EBENE_1
  6
CONTINUOUS
 10
0.568866
 20
0.446973
  0
VERTEX
  8
EBENE_1
  6
CONTINUOUS
 10
0.577401
 20
0.435839
  0
VERTEX
  8
EBENE_1
  6
CONTINUOUS
 10
0.585712
 20
0.424550
  0
VERTEX
  8
EBENE_1
  6
CONTINUOUS
 10
0.593797
 20
0.413110
  0
VERTEX
  8
EBENE_1
  6
CONTINUOUS
 10
0.601654
 20
0.401523
  0
VERTEX
  8
EBENE_1
  6
CONTINUOUS
 10
0.609283
 20
0.389791
  0
VERTEX
  8
EBENE_1
  6
CONTINUOUS
 10
0.616679
 20
0.377919
  0
VERTEX
  8
EBENE_1
  6
CONTINUOUS
 10
0.623842
 20
0.365909
  0
VERTEX
  8
EBENE_1
  6
CONTINUOUS
 10
0.630769
 20
0.353767
  0
VERTEX
  8
EBENE_1
  6
CONTINUOUS
 10
0.637459
 20
0.341495
  0
VERTEX
  8
EBENE_1
  6
CONTINUOUS
 10
0.643909
 20
0.329098
  0
VERTEX
  8
EBENE_1
  6
CONTINUOUS
 10
0.650117
 20
0.316578
  0
VERTEX
  8
EBENE_1
  6
CONTINUOUS
 10
0.656082
 20
0.303939
  0
VERTEX
  8
EBENE_1
  6
CONTINUOUS
 10
0.661801
 20
0.291186
  0
VERTEX
  8
EBENE_1
  6
CONTINUOUS
 10
0.667273
 20
0.278321
  0
VERTEX
  8
EBENE_1
  6
CONTINUOUS
 10
0.672494
 20
0.265349
  0
VERTEX
  8
EBENE_1
  6
CONTINUOUS
 10
0.677465
 20
0.252272
  0
VERTEX
  8
EBENE_1
  6
CONTINUOUS
 10
0.682181
 20
0.239095
  0
VERTEX
  8
EBENE_1
  6
CONTINUOUS
 10
0.686642
 20
0.225821
  0
VERTEX
  8
EBENE_1
  6
CONTINUOUS
 10
0.690845
 20
0.212454
  0
VERTEX
  8
EBENE_1
  6
CONTINUOUS
 10
0.694788
 20
0.198998
  0
VERTEX
  8
EBENE_1
  6
CONTINUOUS
 10
0.698470
 20
0.185455
  0
VERTEX
  8
EBENE_1
  6
CONTINUOUS
 10
0.701888
 20
0.171831
  0
VERTEX
  8
EBENE_1
  6
CONTINUOUS
 10
0.705040
 20
0.158127
  0
VERTEX
  8
EBENE_1
  6
CONTINUOUS
 10
0.707924
 20
0.144349
  0
VERTEX
  8
EBENE_1
  6
CONTINUOUS
 10
0.710539
 20
0.130500
  0
VERTEX
  8
EBENE_1
  6
CONTINUOUS
 10
0.712882
 20
0.116583
  0
VERTEX
  8
EBENE_1
  6
CONTINUOUS
 10
0.658953
 20
0.107957
  0
VERTEX
  8
EBENE_1
  6
CONTINUOUS
 10
0.656583
 20
0.121997
  0
VERTEX
  8
EBENE_1
  6
CONTINUOUS
 10
0.653913
 20
0.135961
  0
VERTEX
  8
EBENE_1
  6
CONTINUOUS
 10
0.650947
 20
0.149846
  0
VERTEX
  8
EBENE_1
  6
CONTINUOUS
 10
0.647686
 20
0.163647
  0
VERTEX
  8
EBENE_1
  6
CONTINUOUS
 10
0.644133
 20
0.177359
  0
VERTEX
  8
EBENE_1
  6
CONTINUOUS
 10
0.640290
 20
0.190978
  0
VERTEX
  8
EBENE_1
  6
CONTINUOUS
 10
0.636160
 20
0.204500
  0
VERTEX
  8
EBENE_1
  6
CONTINUOUS
 10
0.631745
 20
0.217920
  0
VERTEX
  8
EBENE_1
  6
CONTINUOUS
 10
0.627048
 20
0.231234
  0
VERTEX
  8
EBENE_1
  6
CONTINUOUS
 10
0.622071
 20
0.244438
  0
VERTEX
  8
EBENE_1
  6
CONTINUOUS
 10
0.616817
 20
0.257527
  0
VERTEX
  8
EBENE_1
  6
CONTINUOUS
 10
0.611287
 20
0.270496
  0
VERTEX
  8
EBENE_1
  6
CONTINUOUS
 10
0.605485
 20
0.283342
  0
VERTEX
  8
EBENE_1
  6
CONTINUOUS
 10
0.599413
 20
0.296059
  0
VERTEX
  8
EBENE_1
  6
CONTINUOUS
 10
0.593073
 20
0.308645
  0
VERTEX
  8
EBENE_1
  6
CONTINUOUS
 10
0.586468
 20
0.321093
  0
VERTEX
  8
EBENE_1
  6
CONTINUOUS
 10
0.579600
 20
0.333400
  0
VERTEX
  8
EBENE_1
  6
CONTINUOUS
 10
0.572472
 20
0.345562
  0
VERTEX
  8
EBENE_1
  6
CONTINUOUS
 10
0.565086
 20
0.357574
  0
VERTEX
  8
EBENE_1
  6
CONTINUOUS
 10
0.557445
 20
0.369431
  0
VERTEX
  8
EBENE_1
  6
CONTINUOUS
 10
0.549550
 20
0.381130
  0
VERTEX
  8
EBENE_1
  6
CONTINUOUS
 10
0.541405
 20
0.392665
  0
VERTEX
  8
EBENE_1
  6
CONTINUOUS
 10
0.533012
 20
0.404033
  0
VERTEX
  8
EBENE_1
  6
CONTINUOUS
 10
0.524373
 20
0.415229
  0
VERTEX
  8
EBENE_1
  6
CONTINUOUS
 10
0.515491
 20
0.426248
  0
VERTEX
  8
EBENE_1
  6
CONTINUOUS
 10
0.506368
 20
0.437087
  0
VERTEX
  8
EBENE_1
  6
CONTINUOUS
 10
0.497007
 20
0.447741
  0
VERTEX
  8
EBENE_1
  6
CONTINUOUS
 10
0.487410
 20
0.458206
  0
VERTEX
  8
EBENE_1
  6
CONTINUOUS
 10
0.477580
 20
0.468476
  0
VERTEX
  8
EBENE_1
  6
CONTINUOUS
 10
0.467518
 20
0.478548
  0
VERTEX
  8
EBENE_1
  6
CONTINUOUS
 10
0.457228
 20
0.488418
  0
VERTEX
  8
EBENE_1
  6
CONTINUOUS
 10
0.446712
 20
0.498080
  0
VERTEX
  8
EBENE_1
  6
CONTINUOUS
 10
0.435972
 20
0.507531
  0
VERTEX
  8
EBENE_1
  6
CONTINUOUS
 10
0.435972
 20
0.507531
  0
VERTEX
  8
EBENE_1
  6
CONTINUOUS
 10
0.424903
 20
0.516864
  0
VERTEX
  8
EBENE_1
  6
CONTINUOUS
 10
0.413654
 20
0.525937
  0
VERTEX
  8
EBENE_1
  6
CONTINUOUS
 10
0.402231
 20
0.534749
  0
VERTEX
  8
EBENE_1
  6
CONTINUOUS
 10
0.390638
 20
0.543297
  0
VERTEX
  8
EBENE_1
  6
CONTINUOUS
 10
0.378881
 20
0.551579
  0
VERTEX
  8
EBENE_1
  6
CONTINUOUS
 10
0.366963
 20
0.559595
  0
VERTEX
  8
EBENE_1
  6
CONTINUOUS
 10
0.354890
 20
0.567342
  0
VERTEX
  8
EBENE_1
  6
CONTINUOUS
 10
0.342666
 20
0.574819
  0
VERTEX
  8
EBENE_1
  6
CONTINUOUS
 10
0.330295
 20
0.582023
  0
VERTEX
  8
EBENE_1
  6
CONTINUOUS
 10
0.317783
 20
0.588954
  0
VERTEX
  8
EBENE_1
  6
CONTINUOUS
 10
0.305134
 20
0.595610
  0
VERTEX
  8
EBENE_1
  6
CONTINUOUS
 10
0.292352
 20
0.601988
  0
VERTEX
  8
EBENE_1
  6
CONTINUOUS
 10
0.279443
 20
0.608087
  0
VERTEX
  8
EBENE_1
  6
CONTINUOUS
 10
0.266411
 20
0.613905
  0
VERTEX
  8
EBENE_1
  6
CONTINUOUS
 10
0.253260
 20
0.619441
  0
VERTEX
  8
EBENE_1
  6
CONTINUOUS
 10
0.239996
 20
0.624693
  0
VERTEX
  8
EBENE_1
  6
CONTINUOUS
 10
0.226623
 20
0.629659
  0
VERTEX
  8
EBENE_1
  6
CONTINUOUS
 10
0.213145
 20
0.634337
  0
VERTEX
  8
EBENE_1
  6
CONTINUOUS
 10
0.199568
 20
0.638726
  0
VERTEX
  8
EBENE_1
  6
CONTINUOUS
 10
0.185895
 20
0.642824
  0
VERTEX
  8
EBENE_1
  6
CONTINUOUS
 10
0.172132
 20
0.646629
  0
VERTEX
  8
EBENE_1
  6
CONTINUOUS
 10
0.158284
 20
0.650140
  0
VERTEX
  8
EBENE_1
  6
CONTINUOUS
 10
0.144354
 20
0.653354
  0
VERTEX
  8
EBENE_1
  6
CONTINUOUS
 10
0.130347
 20
0.656271
  0
VERTEX
  8
EBENE_1
  6
CONTINUOUS
 10
0.116269
 20
0.658888
  0
VERTEX
  8
EBENE_1
  6
CONTINUOUS
 10
0.102124
 20
0.661203
  0
VERTEX
  8
EBENE_1
  6
CONTINUOUS
 10
0.087916
 20
0.663215
  0
VERTEX
  8
EBENE_1
  6
CONTINUOUS
 10
0.073651
 20
0.664923
  0
VERTEX
  8
EBENE_1
  6
CONTINUOUS
 10
0.059332
 20
0.666324
  0
VERTEX
  8
EBENE_1
  6
CONTINUOUS
 10
0.044965
 20
0.667416
  0
VERTEX
  8
EBENE_1
  6
CONTINUOUS
 10
0.030554
 20
0.668199
  0
VERTEX
  8
EBENE_1
  6
CONTINUOUS
 10
0.016103
 20
0.668669
  0
VERTEX
  8
EBENE_1
  6
CONTINUOUS
 10
0.001618
 20
0.668827
  0
VERTEX
  8
EBENE_1
  6
CONTINUOUS
 10
0.001618
 20
0.668827
  0
VERTEX
  8
EBENE_1
  6
CONTINUOUS
 10
-0.012760
 20
0.668675
  0
VERTEX
  8
EBENE_1
  6
CONTINUOUS
 10
-0.027090
 20
0.668222
  0
VERTEX
  8
EBENE_1
  6
CONTINUOUS
 10
-0.041367
 20
0.667469
  0
VERTEX
  8
EBENE_1
  6
CONTINUOUS
 10
-0.055588
 20
0.666416
  0
VERTEX
  8
EBENE_1
  6
CONTINUOUS
 10
-0.069749
 20
0.665067
  0
VERTEX
  8
EBENE_1
  6
CONTINUOUS
 10
-0.083846
 20
0.663421
  0
VERTEX
  8
EBENE_1
  6
CONTINUOUS
 10
-0.097875
 20
0.661482
  0
VERTEX
  8
EBENE_1
  6
CONTINUOUS
 10
-0.111834
 20
0.659249
  0
VERTEX
  8
EBENE_1
  6
CONTINUOUS
 10
-0.125717
 20
0.656725
  0
VERTEX
  8
EBENE_1
  6
CONTINUOUS
 10
-0.139522
 20
0.653911
  0
VERTEX
  8
EBENE_1
  6
CONTINUOUS
 10
-0.153245
 20
0.650809
  0
VERTEX
  8
EBENE_1
  6
CONTINUOUS
 10
-0.166881
 20
0.647420
  0
VERTEX
  8
EBENE_1
  6
CONTINUOUS
 10
-0.180428
 20
0.643746
  0
VERTEX
  8
EBENE_1
  6
CONTINUOUS
 10
-0.193881
 20
0.639788
  0
VERTEX
  8
EBENE_1
  6
CONTINUOUS
 10
-0.207238
 20
0.635547
  0
VERTEX
  8
EBENE_1
  6
CONTINUOUS
 10
-0.220493
 20
0.631026
  0
VERTEX
  8
EBENE_1
  6
CONTINUOUS
 10
-0.233644
 20
0.626225
  0
VERTEX
  8
EBENE_1
  6
CONTINUOUS
 10
-0.246686
 20
0.621147
  0
VERTEX
  8
EBENE_1
  6
CONTINUOUS
 10
-0.259616
 20
0.615791
  0
VERTEX
  8
EBENE_1
  6
CONTINUOUS
 10
-0.272431
 20
0.610162
  0
VERTEX
  8
EBENE_1
  6
CONTINUOUS
 10
-0.285126
 20
0.604258
  0
VERTEX
  8
EBENE_1
  6
CONTINUOUS
 10
-0.297698
 20
0.598083
  0
VERTEX
  8
EBENE_1
  6
CONTINUOUS
 10
-0.310143
 20
0.591637
  0
VERTEX
  8
EBENE_1
  6
CONTINUOUS
 10
-0.322458
 20
0.584923
  0
VERTEX
  8
EBENE_1
  6
CONTINUOUS
 10
-0.334638
 20
0.577941
  0
VERTEX
  8
EBENE_1
  6
CONTINUOUS
 10
-0.346680
 20
0.570693
  0
VERTEX
  8
EBENE_1
  6
CONTINUOUS
 10
-0.358581
 20
0.563181
  0
VERTEX
  8
EBENE_1
  6
CONTINUOUS
 10
-0.370336
 20
0.555405
  0
VERTEX
  8
EBENE_1
  6
CONTINUOUS
 10
-0.381941
 20
0.547369
  0
VERTEX
  8
EBENE_1
  6
CONTINUOUS
 10
-0.393394
 20
0.539072
  0
VERTEX
  8
EBENE_1
  6
CONTINUOUS
 10
-0.404691
 20
0.530517
  0
VERTEX
  8
EBENE_1
  6
CONTINUOUS
 10
-0.415827
 20
0.521705
  0
VERTEX
  8
EBENE_1
  6
CONTINUOUS
 10
-0.426799
 20
0.512637
  0
VERTEX
  8
EBENE_1
  6
CONTINUOUS
 10
-0.437603
 20
0.503316
  0
VERTEX
  8
EBENE_1
  6
CONTINUOUS
 10
-0.448236
 20
0.493742
  0
VERTEX
  8
EBENE_1
  6
CONTINUOUS
 10
-0.458694
 20
0.483917
  0
VERTEX
  8
EBENE_1
  6
CONTINUOUS
 10
-0.468972
 20
0.473843
  0
VERTEX
  8
EBENE_1
  6
CONTINUOUS
 10
-0.468972
 20
0.473843
  0
VERTEX
  8
EBENE_1
  6
CONTINUOUS
 10
-0.479077
 20
0.463534
  0
VERTEX
  8
EBENE_1
  6
CONTINUOUS
 10
-0.488930
 20
0.453047
  0
VERTEX
  8
EBENE_1
  6
CONTINUOUS
 10
-0.498529
 20
0.442382
  0
VERTEX
  8
EBENE_1
  6
CONTINUOUS
 10
-0.507873
 20
0.431546
  0
VERTEX
  8
EBENE_1
  6
CONTINUOUS
 10
-0.516961
 20
0.420541
  0
VERTEX
  8
EBENE_1
  6
CONTINUOUS
 10
-0.525790
 20
0.409370
  0
VERTEX
  8
EBENE_1
  6
CONTINUOUS
 10
-0.534361
 20
0.398039
  0
VERTEX
  8
EBENE_1
  6
CONTINUOUS
 10
-0.542670
 20
0.386550
  0
VERTEX
  8
EBENE_1
  6
CONTINUOUS
 10
-0.550718
 20
0.374907
  0
VERTEX
  8
EBENE_1
  6
CONTINUOUS
 10
-0.558501
 20
0.363114
  0
VERTEX
  8
EBENE_1
  6
CONTINUOUS
 10
-0.566020
 20
0.351174
  0
VERTEX
  8
EBENE_1
  6
CONTINUOUS
 10
-0.573273
 20
0.339092
  0
VERTEX
  8
EBENE_1
  6
CONTINUOUS
 10
-0.580257
 20
0.326871
  0
VERTEX
  8
EBENE_1
  6
CONTINUOUS
 10
-0.586973
 20
0.314515
  0
VERTEX
  8
EBENE_1
  6
CONTINUOUS
 10
-0.593417
 20
0.302028
  0
VERTEX
  8
EBENE_1
  6
CONTINUOUS
 10
-0.599590
 20
0.289412
  0
VERTEX
  8
EBENE_1
  6
CONTINUOUS
 10
-0.605489
 20
0.276673
  0
VERTEX
  8
EBENE_1
  6
CONTINUOUS
 10
-0.611114
 20
0.263813
  0
VERTEX
  8
EBENE_1
  6
CONTINUOUS
 10
-0.616462
 20
0.250837
  0
VERTEX
  8
EBENE_1
  6
CONTINUOUS
 10
-0.621533
 20
0.237748
  0
VERTEX
  8
EBENE_1
  6
CONTINUOUS
 10
-0.626324
 20
0.224550
  0
VERTEX
  8
EBENE_1
  6
CONTINUOUS
 10
-0.630835
 20
0.211246
  0
VERTEX
  8
EBENE_1
  6
CONTINUOUS
 10
-0.635064
 20
0.197841
  0
VERTEX
  8
EBENE_1
  6
CONTINUOUS
 10
-0.639009
 20
0.184337
  0
VERTEX
  8
EBENE_1
  6
CONTINUOUS
 10
-0.642670
 20
0.170740
  0
VERTEX
  8
EBENE_1
  6
CONTINUOUS
 10
-0.646045
 20
0.157052
  0
VERTEX
  8
EBENE_1
  6
CONTINUOUS
 10
-0.649132
 20
0.143277
  0
VERTEX
  8
EBENE_1
  6
CONTINUOUS
 10
-0.651930
 20
0.129419
  0
VERTEX
  8
EBENE_1
  6
CONTINUOUS
 10
-0.654438
 20
0.115482
  0
VERTEX
  8
EBENE_1
  6
CONTINUOUS
 10
-0.656654
 20
0.101469
  0
VERTEX
  8
EBENE_1
  6
CONTINUOUS
 10
-0.658577
 20
0.087385
  0
VERTEX
  8
EBENE_1
  6
CONTINUOUS
 10
-0.660205
 20
0.073232
  0
VERTEX
  8
EBENE_1
  6
CONTINUOUS
 10
-0.661537
 20
0.059014
  0
VERTEX
  8
EBENE_1
  6
CONTINUOUS
 10
-0.662571
 20
0.044737
  0
VERTEX
  8
EBENE_1
  6
CONTINUOUS
 10
-0.663307
 20
0.030402
  0
VERTEX
  8
EBENE_1
  6
CONTINUOUS
 10
-0.663307
 20
0.030402
  0
VERTEX
  8
EBENE_1
  6
CONTINUOUS
 10
0.004874
 20
0.030724
  0
VERTEX
  8
EBENE_1
  6
CONTINUOUS
 10
0.695413
 20
0.030969
  0
VERTEX
  8
EBENE_1
  6
CONTINUOUS
 10
0.722866
 20
0.030969
  0
VERTEX
  8
EBENE_1
  6
CONTINUOUS
 10
0.722756
 20
0.003764
  0
VERTEX
  8
EBENE_1
  6
CONTINUOUS
 10
0.722615
 20
-0.010643
  0
VERTEX
  8
EBENE_1
  6
CONTINUOUS
 10
0.722192
 20
-0.025006
  0
VERTEX
  8
EBENE_1
  6
CONTINUOUS
 10
0.721489
 20
-0.039319
  0
VERTEX
  8
EBENE_1
  6
CONTINUOUS
 10
0.720508
 20
-0.053582
  0
VERTEX
  8
EBENE_1
  6
CONTINUOUS
 10
0.719249
 20
-0.067790
  0
VERTEX
  8
EBENE_1
  6
CONTINUOUS
 10
0.717714
 20
-0.081941
  0
VERTEX
  8
EBENE_1
  6
CONTINUOUS
 10
0.715904
 20
-0.096031
  0
VERTEX
  8
EBENE_1
  6
CONTINUOUS
 10
0.713821
 20
-0.110058
  0
VERTEX
  8
EBENE_1
  6
CONTINUOUS
 10
0.711466
 20
-0.124017
  0
VERTEX
  8
EBENE_1
  6
CONTINUOUS
 10
0.708840
 20
-0.137906
  0
VERTEX
  8
EBENE_1
  6
CONTINUOUS
 10
0.705944
 20
-0.151723
  0
VERTEX
  8
EBENE_1
  6
CONTINUOUS
 10
0.702781
 20
-0.165463
  0
VERTEX
  8
EBENE_1
  6
CONTINUOUS
 10
0.699351
 20
-0.179123
  0
VERTEX
  8
EBENE_1
  6
CONTINUOUS
 10
0.695656
 20
-0.192702
  0
VERTEX
  8
EBENE_1
  6
CONTINUOUS
 10
0.691696
 20
-0.206194
  0
VERTEX
  8
EBENE_1
  6
CONTINUOUS
 10
0.687474
 20
-0.219598
  0
VERTEX
  8
EBENE_1
  6
CONTINUOUS
 10
0.682991
 20
-0.232910
  0
VERTEX
  8
EBENE_1
  6
CONTINUOUS
 10
0.678248
 20
-0.246127
  0
VERTEX
  8
EBENE_1
  6
CONTINUOUS
 10
0.673246
 20
-0.259245
  0
VERTEX
  8
EBENE_1
  6
CONTINUOUS
 10
0.667987
 20
-0.272263
  0
VERTEX
  8
EBENE_1
  6
CONTINUOUS
 10
0.662472
 20
-0.285176
  0
VERTEX
  8
EBENE_1
  6
CONTINUOUS
 10
0.656702
 20
-0.297982
  0
VERTEX
  8
EBENE_1
  6
CONTINUOUS
 10
0.650679
 20
-0.310677
  0
VERTEX
  8
EBENE_1
  6
CONTINUOUS
 10
0.644404
 20
-0.323258
  0
VERTEX
  8
EBENE_1
  6
CONTINUOUS
 10
0.637879
 20
-0.335722
  0
VERTEX
  8
EBENE_1
  6
CONTINUOUS
 10
0.631104
 20
-0.348067
  0
VERTEX
  8
EBENE_1
  6
CONTINUOUS
 10
0.624081
 20
-0.360288
  0
VERTEX
  8
EBENE_1
  6
CONTINUOUS
 10
0.616812
 20
-0.372383
  0
VERTEX
  8
EBENE_1
  6
CONTINUOUS
 10
0.609298
 20
-0.384349
  0
VERTEX
  8
EBENE_1
  6
CONTINUOUS
 10
0.601540
 20
-0.396183
  0
VERTEX
  8
EBENE_1
  6
CONTINUOUS
 10
0.593539
 20
-0.407880
  0
VERTEX
  8
EBENE_1
  6
CONTINUOUS
 10
0.585298
 20
-0.419439
  0
VERTEX
  8
EBENE_1
  6
CONTINUOUS
 10
0.576816
 20
-0.430857
  0
VERTEX
  8
EBENE_1
  6
CONTINUOUS
 10
0.568096
 20
-0.442129
  0
VERTEX
  8
EBENE_1
  6
CONTINUOUS
 10
0.559139
 20
-0.453253
  0
VERTEX
  8
EBENE_1
  6
CONTINUOUS
 10
0.549946
 20
-0.464226
  0
VERTEX
  8
EBENE_1
  6
CONTINUOUS
 10
0.540518
 20
-0.475045
  0
VERTEX
  8
EBENE_1
  6
CONTINUOUS
 10
0.530858
 20
-0.485706
  0
VERTEX
  8
EBENE_1
  6
CONTINUOUS
 10
0.520965
 20
-0.496206
  0
VERTEX
  8
EBENE_1
  6
CONTINUOUS
 10
0.510843
 20
-0.506543
  0
SEQEND
  8
0
  0
POLYLINE
  8
EBENE_1
  6
CONTINUOUS
 66
     1
 40
0.047244
 41
0.047244
  0
VERTEX
  8
EBENE_1
  6
CONTINUOUS
 10
0.950945
 20
0.003382
  0
VERTEX
  8
EBENE_1
  6
CONTINUOUS
 10
0.950852
 20
-0.010047
  0
VERTEX
  8
EBENE_1
  6
CONTINUOUS
 10
0.950574
 20
-0.023431
  0
VERTEX
  8
EBENE_1
  6
CONTINUOUS
 10
0.950112
 20
-0.036769
  0
VERTEX
  8
EBENE_1
  6
CONTINUOUS
 10
0.949468
 20
-0.050059
  0
VERTEX
  8
EBENE_1
  6
CONTINUOUS
 10
0.948642
 20
-0.063302
  0
VERTEX
  8
EBENE_1
  6
CONTINUOUS
 10
0.947636
 20
-0.076494
  0
VERTEX
  8
EBENE_1
  6
CONTINUOUS
 10
0.946451
 20
-0.089636
  0
VERTEX
  8
EBENE_1
  6
CONTINUOUS
 10
0.945088
 20
-0.102726
  0
VERTEX
  8
EBENE_1
  6
CONTINUOUS
 10
0.943548
 20
-0.115762
  0
VERTEX
  8
EBENE_1
  6
CONTINUOUS
 10
0.941834
 20
-0.128744
  0
VERTEX
  8
EBENE_1
  6
CONTINUOUS
 10
0.939945
 20
-0.141670
  0
VERTEX
  8
EBENE_1
  6
CONTINUOUS
 10
0.937883
 20
-0.154539
  0
VERTEX
  8
EBENE_1
  6
CONTINUOUS
 10
0.935650
 20
-0.167350
  0
VERTEX
  8
EBENE_1
  6
CONTINUOUS
 10
0.933247
 20
-0.180102
  0
VERTEX
  8
EBENE_1
  6
CONTINUOUS
 10
0.930674
 20
-0.192793
  0
VERTEX
  8
EBENE_1
  6
CONTINUOUS
 10
0.927933
 20
-0.205422
  0
VERTEX
  8
EBENE_1
  6
CONTINUOUS
 10
0.925025
 20
-0.217988
  0
VERTEX
  8
EBENE_1
  6
CONTINUOUS
 10
0.921952
 20
-0.230489
  0
VERTEX
  8
EBENE_1
  6
CONTINUOUS
 10
0.918715
 20
-0.242925
  0
VERTEX
  8
EBENE_1
  6
CONTINUOUS
 10
0.915314
 20
-0.255295
  0
VERTEX
  8
EBENE_1
  6
CONTINUOUS
 10
0.911752
 20
-0.267596
  0
VERTEX
  8
EBENE_1
  6
CONTINUOUS
 10
0.908028
 20
-0.279829
  0
VERTEX
  8
EBENE_1
  6
CONTINUOUS
 10
0.904146
 20
-0.291990
  0
VERTEX
  8
EBENE_1
  6
CONTINUOUS
 10
0.900105
 20
-0.304081
  0
VERTEX
  8
EBENE_1
  6
CONTINUOUS
 10
0.895907
 20
-0.316098
  0
VERTEX
  8
EBENE_1
  6
CONTINUOUS
 10
0.891554
 20
-0.328041
  0
VERTEX
  8
EBENE_1
  6
CONTINUOUS
 10
0.887045
 20
-0.339910
  0
VERTEX
  8
EBENE_1
  6
CONTINUOUS
 10
0.882384
 20
-0.351701
  0
VERTEX
  8
EBENE_1
  6
CONTINUOUS
 10
0.877570
 20
-0.363415
  0
VERTEX
  8
EBENE_1
  6
CONTINUOUS
 10
0.872606
 20
-0.375050
  0
VERTEX
  8
EBENE_1
  6
CONTINUOUS
 10
0.867492
 20
-0.386605
  0
VERTEX
  8
EBENE_1
  6
CONTINUOUS
 10
0.862229
 20
-0.398078
  0
VERTEX
  8
EBENE_1
  6
CONTINUOUS
 10
0.856819
 20
-0.409469
  0
VERTEX
  8
EBENE_1
  6
CONTINUOUS
 10
0.851263
 20
-0.420775
  0
VERTEX
  8
EBENE_1
  6
CONTINUOUS
 10
0.845562
 20
-0.431997
  0
VERTEX
  8
EBENE_1
  6
CONTINUOUS
 10
0.839718
 20
-0.443133
  0
VERTEX
  8
EBENE_1
  6
CONTINUOUS
 10
0.833731
 20
-0.454181
  0
VERTEX
  8
EBENE_1
  6
CONTINUOUS
 10
0.827604
 20
-0.465140
  0
VERTEX
  8
EBENE_1
  6
CONTINUOUS
 10
0.821336
 20
-0.476010
  0
VERTEX
  8
EBENE_1
  6
CONTINUOUS
 10
0.814929
 20
-0.486788
  0
VERTEX
  8
EBENE_1
  6
CONTINUOUS
 10
0.808385
 20
-0.497474
  0
VERTEX
  8
EBENE_1
  6
CONTINUOUS
 10
0.801705
 20
-0.508066
  0
VERTEX
  8
EBENE_1
  6
CONTINUOUS
 10
0.794890
 20
-0.518564
  0
VERTEX
  8
EBENE_1
  6
CONTINUOUS
 10
0.787941
 20
-0.528965
  0
VERTEX
  8
EBENE_1
  6
CONTINUOUS
 10
0.780859
 20
-0.539269
  0
VERTEX
  8
EBENE_1
  6
CONTINUOUS
 10
0.773646
 20
-0.549475
  0
VERTEX
  8
EBENE_1
  6
CONTINUOUS
 10
0.766303
 20
-0.559581
  0
VERTEX
  8
EBENE_1
  6
CONTINUOUS
 10
0.758831
 20
-0.569586
  0
VERTEX
  8
EBENE_1
  6
CONTINUOUS
 10
0.751231
 20
-0.579489
  0
VERTEX
  8
EBENE_1
  6
CONTINUOUS
 10
0.743505
 20
-0.589289
  0
VERTEX
  8
EBENE_1
  6
CONTINUOUS
 10
0.735654
 20
-0.598984
  0
VERTEX
  8
EBENE_1
  6
CONTINUOUS
 10
0.727678
 20
-0.608573
  0
VERTEX
  8
EBENE_1
  6
CONTINUOUS
 10
0.719579
 20
-0.618055
  0
VERTEX
  8
EBENE_1
  6
CONTINUOUS
 10
0.711359
 20
-0.627429
  0
VERTEX
  8
EBENE_1
  6
CONTINUOUS
 10
0.703019
 20
-0.636693
  0
VERTEX
  8
EBENE_1
  6
CONTINUOUS
 10
0.694559
 20
-0.645847
  0
VERTEX
  8
EBENE_1
  6
CONTINUOUS
 10
0.685982
 20
-0.654889
  0
VERTEX
  8
EBENE_1
  6
CONTINUOUS
 10
0.677287
 20
-0.663818
  0
VERTEX
  8
EBENE_1
  6
CONTINUOUS
 10
0.668477
 20
-0.672632
  0
VERTEX
  8
EBENE_1
  6
CONTINUOUS
 10
0.659553
 20
-0.681331
  0
VERTEX
  8
EBENE_1
  6
CONTINUOUS
 10
0.650516
 20
-0.689913
  0
VERTEX
  8
EBENE_1
  6
CONTINUOUS
 10
0.641367
 20
-0.698377
  0
VERTEX
  8
EBENE_1
  6
CONTINUOUS
 10
0.632107
 20
-0.706721
  0
VERTEX
  8
EBENE_1
  6
CONTINUOUS
 10
0.622738
 20
-0.714946
  0
VERTEX
  8
EBENE_1
  6
CONTINUOUS
 10
0.613261
 20
-0.723048
  0
VERTEX
  8
EBENE_1
  6
CONTINUOUS
 10
0.603676
 20
-0.731028
  0
VERTEX
  8
EBENE_1
  6
CONTINUOUS
 10
0.593986
 20
-0.738884
  0
VERTEX
  8
EBENE_1
  6
CONTINUOUS
 10
0.584192
 20
-0.746614
  0
VERTEX
  8
EBENE_1
  6
CONTINUOUS
 10
0.574294
 20
-0.754218
  0
VERTEX
  8
EBENE_1
  6
CONTINUOUS
 10
0.564294
 20
-0.761693
  0
VERTEX
  8
EBENE_1
  6
CONTINUOUS
 10
0.554193
 20
-0.769040
  0
VERTEX
  8
EBENE_1
  6
CONTINUOUS
 10
0.543993
 20
-0.776257
  0
VERTEX
  8
EBENE_1
  6
CONTINUOUS
 10
0.533694
 20
-0.783342
  0
VERTEX
  8
EBENE_1
  6
CONTINUOUS
 10
0.523298
 20
-0.790295
  0
VERTEX
  8
EBENE_1
  6
CONTINUOUS
 10
0.512805
 20
-0.797114
  0
VERTEX
  8
EBENE_1
  6
CONTINUOUS
 10
0.502218
 20
-0.803797
  0
VERTEX
  8
EBENE_1
  6
CONTINUOUS
 10
0.491538
 20
-0.810344
  0
VERTEX
  8
EBENE_1
  6
CONTINUOUS
 10
0.480765
 20
-0.816754
  0
VERTEX
  8
EBENE_1
  6
CONTINUOUS
 10
0.469901
 20
-0.823025
  0
VERTEX
  8
EBENE_1
  6
CONTINUOUS
 10
0.458948
 20
-0.829156
  0
VERTEX
  8
EBENE_1
  6
CONTINUOUS
 10
0.447905
 20
-0.835146
  0
VERTEX
  8
EBENE_1
  6
CONTINUOUS
 10
0.436775
 20
-0.840993
  0
VERTEX
  8
EBENE_1
  6
CONTINUOUS
 10
0.425559
 20
-0.846697
  0
VERTEX
  8
EBENE_1
  6
CONTINUOUS
 10
0.414258
 20
-0.852255
  0
VERTEX
  8
EBENE_1
  6
CONTINUOUS
 10
0.402873
 20
-0.857668
  0
VERTEX
  8
EBENE_1
  6
CONTINUOUS
 10
0.391406
 20
-0.862933
  0
VERTEX
  8
EBENE_1
  6
CONTINUOUS
 10
0.379857
 20
-0.868050
  0
VERTEX
  8
EBENE_1
  6
CONTINUOUS
 10
0.368228
 20
-0.873017
  0
VERTEX
  8
EBENE_1
  6
CONTINUOUS
 10
0.356520
 20
-0.877833
  0
VERTEX
  8
EBENE_1
  6
CONTINUOUS
 10
0.344734
 20
-0.882497
  0
VERTEX
  8
EBENE_1
  6
CONTINUOUS
 10
0.332872
 20
-0.887008
  0
VERTEX
  8
EBENE_1
  6
CONTINUOUS
 10
0.320935
 20
-0.891363
  0
VERTEX
  8
EBENE_1
  6
CONTINUOUS
 10
0.308924
 20
-0.895563
  0
VERTEX
  8
EBENE_1
  6
CONTINUOUS
 10
0.296840
 20
-0.899606
  0
VERTEX
  8
EBENE_1
  6
CONTINUOUS
 10
0.284684
 20
-0.903491
  0
VERTEX
  8
EBENE_1
  6
CONTINUOUS
 10
0.272458
 20
-0.907216
  0
VERTEX
  8
EBENE_1
  6
CONTINUOUS
 10
0.260163
 20
-0.910780
  0
VERTEX
  8
EBENE_1
  6
CONTINUOUS
 10
0.247800
 20
-0.914182
  0
VERTEX
  8
EBENE_1
  6
CONTINUOUS
 10
0.235370
 20
-0.917422
  0
VERTEX
  8
EBENE_1
  6
CONTINUOUS
 10
0.222875
 20
-0.920496
  0
VERTEX
  8
EBENE_1
  6
CONTINUOUS
 10
0.210315
 20
-0.923405
  0
VERTEX
  8
EBENE_1
  6
CONTINUOUS
 10
0.197692
 20
-0.926148
  0
VERTEX
  8
EBENE_1
  6
CONTINUOUS
 10
0.185008
 20
-0.928722
  0
VERTEX
  8
EBENE_1
  6
CONTINUOUS
 10
0.172263
 20
-0.931127
  0
VERTEX
  8
EBENE_1
  6
CONTINUOUS
 10
0.159459
 20
-0.933361
  0
VERTEX
  8
EBENE_1
  6
CONTINUOUS
 10
0.146596
 20
-0.935424
  0
VERTEX
  8
EBENE_1
  6
CONTINUOUS
 10
0.133677
 20
-0.937313
  0
VERTEX
  8
EBENE_1
  6
CONTINUOUS
 10
0.120701
 20
-0.939029
  0
VERTEX
  8
EBENE_1
  6
CONTINUOUS
 10
0.107672
 20
-0.940569
  0
VERTEX
  8
EBENE_1
  6
CONTINUOUS
 10
0.094589
 20
-0.941933
  0
VERTEX
  8
EBENE_1
  6
CONTINUOUS
 10
0.081453
 20
-0.943118
  0
VERTEX
  8
EBENE_1
  6
CONTINUOUS
 10
0.068268
 20
-0.944125
  0
VERTEX
  8
EBENE_1
  6
CONTINUOUS
 10
0.055032
 20
-0.944951
  0
VERTEX
  8
EBENE_1
  6
CONTINUOUS
 10
0.041748
 20
-0.945596
  0
VERTEX
  8
EBENE_1
  6
CONTINUOUS
 10
0.028417
 20
-0.946058
  0
VERTEX
  8
EBENE_1
  6
CONTINUOUS
 10
0.015040
 20
-0.946336
  0
VERTEX
  8
EBENE_1
  6
CONTINUOUS
 10
0.001618
 20
-0.946429
  0
SEQEND
  8
0
  0
POLYLINE
  8
EBENE_1
  6
CONTINUOUS
 66
     1
 40
0.047244
 41
0.047244
  0
VERTEX
  8
EBENE_1
  6
CONTINUOUS
 10
0.001618
 20
-0.946429
  0
VERTEX
  8
EBENE_1
  6
CONTINUOUS
 10
-0.011801
 20
-0.946336
  0
VERTEX
  8
EBENE_1
  6
CONTINUOUS
 10
-0.025175
 20
-0.946058
  0
VERTEX
  8
EBENE_1
  6
CONTINUOUS
 10
-0.038503
 20
-0.945596
  0
VERTEX
  8
EBENE_1
  6
CONTINUOUS
 10
-0.051785
 20
-0.944951
  0
VERTEX
  8
EBENE_1
  6
CONTINUOUS
 10
-0.065017
 20
-0.944125
  0
VERTEX
  8
EBENE_1
  6
CONTINUOUS
 10
-0.078201
 20
-0.943118
  0
VERTEX
  8
EBENE_1
  6
CONTINUOUS
 10
-0.091333
 20
-0.941933
  0
VERTEX
  8
EBENE_1
  6
CONTINUOUS
 10
-0.104414
 20
-0.940569
  0
VERTEX
  8
EBENE_1
  6
CONTINUOUS
 10
-0.117441
 20
-0.939029
  0
VERTEX
  8
EBENE_1
  6
CONTINUOUS
 10
-0.130414
 20
-0.937313
  0
VERTEX
  8
EBENE_1
  6
CONTINUOUS
 10
-0.143331
 20
-0.935424
  0
VERTEX
  8
EBENE_1
  6
CONTINUOUS
 10
-0.156191
 20
-0.933361
  0
VERTEX
  8
EBENE_1
  6
CONTINUOUS
 10
-0.168993
 20
-0.931127
  0
VERTEX
  8
EBENE_1
  6
CONTINUOUS
 10
-0.181736
 20
-0.928722
  0
VERTEX
  8
EBENE_1
  6
CONTINUOUS
 10
-0.194418
 20
-0.926148
  0
VERTEX
  8
EBENE_1
  6
CONTINUOUS
 10
-0.207038
 20
-0.923405
  0
VERTEX
  8
EBENE_1
  6
CONTINUOUS
 10
-0.219596
 20
-0.920496
  0
VERTEX
  8
EBENE_1
  6
CONTINUOUS
 10
-0.232089
 20
-0.917422
  0
VERTEX
  8
EBENE_1
  6
CONTINUOUS
 10
-0.244517
 20
-0.914182
  0
VERTEX
  8
EBENE_1
  6
CONTINUOUS
 10
-0.256878
 20
-0.910780
  0
VERTEX
  8
EBENE_1
  6
CONTINUOUS
 10
-0.269171
 20
-0.907216
  0
VERTEX
  8
EBENE_1
  6
CONTINUOUS
 10
-0.281395
 20
-0.903491
  0
VERTEX
  8
EBENE_1
  6
CONTINUOUS
 10
-0.293549
 20
-0.899606
  0
VERTEX
  8
EBENE_1
  6
CONTINUOUS
 10
-0.305631
 20
-0.895563
  0
VERTEX
  8
EBENE_1
  6
CONTINUOUS
 10
-0.317641
 20
-0.891363
  0
VERTEX
  8
EBENE_1
  6
CONTINUOUS
 10
-0.329576
 20
-0.887008
  0
VERTEX
  8
EBENE_1
  6
CONTINUOUS
 10
-0.341436
 20
-0.882497
  0
VERTEX
  8
EBENE_1
  6
CONTINUOUS
 10
-0.353220
 20
-0.877833
  0
VERTEX
  8
EBENE_1
  6
CONTINUOUS
 10
-0.364927
 20
-0.873017
  0
VERTEX
  8
EBENE_1
  6
CONTINUOUS
 10
-0.376554
 20
-0.868050
  0
VERTEX
  8
EBENE_1
  6
CONTINUOUS
 10
-0.388101
 20
-0.862933
  0
VERTEX
  8
EBENE_1
  6
CONTINUOUS
 10
-0.399567
 20
-0.857668
  0
VERTEX
  8
EBENE_1
  6
CONTINUOUS
 10
-0.410951
 20
-0.852255
  0
VERTEX
  8
EBENE_1
  6
CONTINUOUS
 10
-0.422250
 20
-0.846697
  0
VERTEX
  8
EBENE_1
  6
CONTINUOUS
 10
-0.433465
 20
-0.840993
  0
VERTEX
  8
EBENE_1
  6
CONTINUOUS
 10
-0.444594
 20
-0.835146
  0
VERTEX
  8
EBENE_1
  6
CONTINUOUS
 10
-0.455635
 20
-0.829156
  0
VERTEX
  8
EBENE_1
  6
CONTINUOUS
 10
-0.466587
 20
-0.823025
  0
VERTEX
  8
EBENE_1
  6
CONTINUOUS
 10
-0.477450
 20
-0.816754
  0
VERTEX
  8
EBENE_1
  6
CONTINUOUS
 10
-0.488221
 20
-0.810344
  0
VERTEX
  8
EBENE_1
  6
CONTINUOUS
 10
-0.498900
 20
-0.803797
  0
VERTEX
  8
EBENE_1
  6
CONTINUOUS
 10
-0.509486
 20
-0.797114
  0
VERTEX
  8
EBENE_1
  6
CONTINUOUS
 10
-0.519977
 20
-0.790295
  0
VERTEX
  8
EBENE_1
  6
CONTINUOUS
 10
-0.530372
 20
-0.783342
  0
VERTEX
  8
EBENE_1
  6
CONTINUOUS
 10
-0.540670
 20
-0.776257
  0
VERTEX
  8
EBENE_1
  6
CONTINUOUS
 10
-0.550870
 20
-0.769040
  0
VERTEX
  8
EBENE_1
  6
CONTINUOUS
 10
-0.560969
 20
-0.761693
  0
VERTEX
  8
EBENE_1
  6
CONTINUOUS
 10
-0.570968
 20
-0.754218
  0
VERTEX
  8
EBENE_1
  6
CONTINUOUS
 10
-0.580865
 20
-0.746614
  0
VERTEX
  8
EBENE_1
  6
CONTINUOUS
 10
-0.590659
 20
-0.738884
  0
VERTEX
  8
EBENE_1
  6
CONTINUOUS
 10
-0.600348
 20
-0.731028
  0
VERTEX
  8
EBENE_1
  6
CONTINUOUS
 10
-0.609932
 20
-0.723048
  0
VERTEX
  8
EBENE_1
  6
CONTINUOUS
 10
-0.619408
 20
-0.714946
  0
VERTEX
  8
EBENE_1
  6
CONTINUOUS
 10
-0.628776
 20
-0.706721
  0
VERTEX
  8
EBENE_1
  6
CONTINUOUS
 10
-0.638035
 20
-0.698377
  0
VERTEX
  8
EBENE_1
  6
CONTINUOUS
 10
-0.647184
 20
-0.689913
  0
VERTEX
  8
EBENE_1
  6
CONTINUOUS
 10
-0.656220
 20
-0.681331
  0
VERTEX
  8
EBENE_1
  6
CONTINUOUS
 10
-0.665144
 20
-0.672632
  0
VERTEX
  8
EBENE_1
  6
CONTINUOUS
 10
-0.673953
 20
-0.663818
  0
VERTEX
  8
EBENE_1
  6
CONTINUOUS
 10
-0.682646
 20
-0.654889
  0
VERTEX
  8
EBENE_1
  6
CONTINUOUS
 10
-0.691223
 20
-0.645847
  0
VERTEX
  8
EBENE_1
  6
CONTINUOUS
 10
-0.699682
 20
-0.636693
  0
VERTEX
  8
EBENE_1
  6
CONTINUOUS
 10
-0.708022
 20
-0.627429
  0
VERTEX
  8
EBENE_1
  6
CONTINUOUS
 10
-0.716242
 20
-0.618055
  0
VERTEX
  8
EBENE_1
  6
CONTINUOUS
 10
-0.724340
 20
-0.608573
  0
VERTEX
  8
EBENE_1
  6
CONTINUOUS
 10
-0.732315
 20
-0.598984
  0
VERTEX
  8
EBENE_1
  6
CONTINUOUS
 10
-0.740166
 20
-0.589289
  0
VERTEX
  8
EBENE_1
  6
CONTINUOUS
 10
-0.747892
 20
-0.579489
  0
VERTEX
  8
EBENE_1
  6
CONTINUOUS
 10
-0.755491
 20
-0.569586
  0
VERTEX
  8
EBENE_1
  6
CONTINUOUS
 10
-0.762963
 20
-0.559581
  0
VERTEX
  8
EBENE_1
  6
CONTINUOUS
 10
-0.770306
 20
-0.549475
  0
VERTEX
  8
EBENE_1
  6
CONTINUOUS
 10
-0.777518
 20
-0.539269
  0
VERTEX
  8
EBENE_1
  6
CONTINUOUS
 10
-0.784599
 20
-0.528965
  0
VERTEX
  8
EBENE_1
  6
CONTINUOUS
 10
-0.791548
 20
-0.518564
  0
VERTEX
  8
EBENE_1
  6
CONTINUOUS
 10
-0.798363
 20
-0.508066
  0
VERTEX
  8
EBENE_1
  6
CONTINUOUS
 10
-0.805043
 20
-0.497474
  0
VERTEX
  8
EBENE_1
  6
CONTINUOUS
 10
-0.811586
 20
-0.486788
  0
VERTEX
  8
EBENE_1
  6
CONTINUOUS
 10
-0.817993
 20
-0.476010
  0
VERTEX
  8
EBENE_1
  6
CONTINUOUS
 10
-0.824260
 20
-0.465140
  0
VERTEX
  8
EBENE_1
  6
CONTINUOUS
 10
-0.830388
 20
-0.454181
  0
VERTEX
  8
EBENE_1
  6
CONTINUOUS
 10
-0.836374
 20
-0.443133
  0
VERTEX
  8
EBENE_1
  6
CONTINUOUS
 10
-0.842218
 20
-0.431997
  0
VERTEX
  8
EBENE_1
  6
CONTINUOUS
 10
-0.847919
 20
-0.420775
  0
VERTEX
  8
EBENE_1
  6
CONTINUOUS
 10
-0.853474
 20
-0.409469
  0
VERTEX
  8
EBENE_1
  6
CONTINUOUS
 10
-0.858884
 20
-0.398078
  0
VERTEX
  8
EBENE_1
  6
CONTINUOUS
 10
-0.864147
 20
-0.386605
  0
VERTEX
  8
EBENE_1
  6
CONTINUOUS
 10
-0.869261
 20
-0.375050
  0
VERTEX
  8
EBENE_1
  6
CONTINUOUS
 10
-0.874225
 20
-0.363415
  0
VERTEX
  8
EBENE_1
  6
CONTINUOUS
 10
-0.879038
 20
-0.351701
  0
VERTEX
  8
EBENE_1
  6
CONTINUOUS
 10
-0.883700
 20
-0.339910
  0
VERTEX
  8
EBENE_1
  6
CONTINUOUS
 10
-0.888208
 20
-0.328041
  0
VERTEX
  8
EBENE_1
  6
CONTINUOUS
 10
-0.892561
 20
-0.316098
  0
VERTEX
  8
EBENE_1
  6
CONTINUOUS
 10
-0.896759
 20
-0.304081
  0
VERTEX
  8
EBENE_1
  6
CONTINUOUS
 10
-0.900800
 20
-0.291990
  0
VERTEX
  8
EBENE_1
  6
CONTINUOUS
 10
-0.904682
 20
-0.279829
  0
VERTEX
  8
EBENE_1
  6
CONTINUOUS
 10
-0.908405
 20
-0.267596
  0
VERTEX
  8
EBENE_1
  6
CONTINUOUS
 10
-0.911968
 20
-0.255295
  0
VERTEX
  8
EBENE_1
  6
CONTINUOUS
 10
-0.915368
 20
-0.242925
  0
VERTEX
  8
EBENE_1
  6
CONTINUOUS
 10
-0.918606
 20
-0.230489
  0
VERTEX
  8
EBENE_1
  6
CONTINUOUS
 10
-0.921679
 20
-0.217988
  0
VERTEX
  8
EBENE_1
  6
CONTINUOUS
 10
-0.924586
 20
-0.205422
  0
VERTEX
  8
EBENE_1
  6
CONTINUOUS
 10
-0.927327
 20
-0.192793
  0
VERTEX
  8
EBENE_1
  6
CONTINUOUS
 10
-0.929900
 20
-0.180102
  0
VERTEX
  8
EBENE_1
  6
CONTINUOUS
 10
-0.932304
 20
-0.167350
  0
VERTEX
  8
EBENE_1
  6
CONTINUOUS
 10
-0.934537
 20
-0.154539
  0
VERTEX
  8
EBENE_1
  6
CONTINUOUS
 10
-0.936599
 20
-0.141670
  0
VERTEX
  8
EBENE_1
  6
CONTINUOUS
 10
-0.938487
 20
-0.128744
  0
VERTEX
  8
EBENE_1
  6
CONTINUOUS
 10
-0.940202
 20
-0.115762
  0
VERTEX
  8
EBENE_1
  6
CONTINUOUS
 10
-0.941741
 20
-0.102726
  0
VERTEX
  8
EBENE_1
  6
CONTINUOUS
 10
-0.943104
 20
-0.089636
  0
VERTEX
  8
EBENE_1
  6
CONTINUOUS
 10
-0.944289
 20
-0.076494
  0
VERTEX
  8
EBENE_1
  6
CONTINUOUS
 10
-0.945295
 20
-0.063302
  0
VERTEX
  8
EBENE_1
  6
CONTINUOUS
 10
-0.946121
 20
-0.050059
  0
VERTEX
  8
EBENE_1
  6
CONTINUOUS
 10
-0.946766
 20
-0.036769
  0
VERTEX
  8
EBENE_1
  6
CONTINUOUS
 10
-0.947227
 20
-0.023431
  0
VERTEX
  8
EBENE_1
  6
CONTINUOUS
 10
-0.947505
 20
-0.010047
  0
VERTEX
  8
EBENE_1
  6
CONTINUOUS
 10
-0.947598
 20
0.003382
  0
SEQEND
  8
0
  0
POLYLINE
  8
EBENE_1
  6
CONTINUOUS
 66
     1
 40
0.047244
 41
0.047244
  0
VERTEX
  8
EBENE_1
  6
CONTINUOUS
 10
-0.947598
 20
0.003382
  0
VERTEX
  8
EBENE_1
  6
CONTINUOUS
 10
-0.947505
 20
0.016801
  0
VERTEX
  8
EBENE_1
  6
CONTINUOUS
 10
-0.947227
 20
0.030175
  0
VERTEX
  8
EBENE_1
  6
CONTINUOUS
 10
-0.946766
 20
0.043504
  0
VERTEX
  8
EBENE_1
  6
CONTINUOUS
 10
-0.946121
 20
0.056785
  0
VERTEX
  8
EBENE_1
  6
CONTINUOUS
 10
-0.945295
 20
0.070018
  0
VERTEX
  8
EBENE_1
  6
CONTINUOUS
 10
-0.944289
 20
0.083201
  0
VERTEX
  8
EBENE_1
  6
CONTINUOUS
 10
-0.943104
 20
0.096333
  0
VERTEX
  8
EBENE_1
  6
CONTINUOUS
 10
-0.941741
 20
0.109414
  0
VERTEX
  8
EBENE_1
  6
CONTINUOUS
 10
-0.940202
 20
0.122441
  0
VERTEX
  8
EBENE_1
  6
CONTINUOUS
 10
-0.938487
 20
0.135414
  0
VERTEX
  8
EBENE_1
  6
CONTINUOUS
 10
-0.936599
 20
0.148331
  0
VERTEX
  8
EBENE_1
  6
CONTINUOUS
 10
-0.934537
 20
0.161191
  0
VERTEX
  8
EBENE_1
  6
CONTINUOUS
 10
-0.932304
 20
0.173993
  0
VERTEX
  8
EBENE_1
  6
CONTINUOUS
 10
-0.929900
 20
0.186736
  0
VERTEX
  8
EBENE_1
  6
CONTINUOUS
 10
-0.927327
 20
0.199418
  0
VERTEX
  8
EBENE_1
  6
CONTINUOUS
 10
-0.924586
 20
0.212038
  0
VERTEX
  8
EBENE_1
  6
CONTINUOUS
 10
-0.921679
 20
0.224596
  0
VERTEX
  8
EBENE_1
  6
CONTINUOUS
 10
-0.918606
 20
0.237089
  0
VERTEX
  8
EBENE_1
  6
CONTINUOUS
 10
-0.915368
 20
0.249516
  0
VERTEX
  8
EBENE_1
  6
CONTINUOUS
 10
-0.911968
 20
0.261877
  0
VERTEX
  8
EBENE_1
  6
CONTINUOUS
 10
-0.908405
 20
0.274170
  0
VERTEX
  8
EBENE_1
  6
CONTINUOUS
 10
-0.904682
 20
0.286394
  0
VERTEX
  8
EBENE_1
  6
CONTINUOUS
 10
-0.900800
 20
0.298548
  0
VERTEX
  8
EBENE_1
  6
CONTINUOUS
 10
-0.896759
 20
0.310630
  0
VERTEX
  8
EBENE_1
  6
CONTINUOUS
 10
-0.892561
 20
0.322639
  0
VERTEX
  8
EBENE_1
  6
CONTINUOUS
 10
-0.888208
 20
0.334575
  0
VERTEX
  8
EBENE_1
  6
CONTINUOUS
 10
-0.883700
 20
0.346435
  0
VERTEX
  8
EBENE_1
  6
CONTINUOUS
 10
-0.879038
 20
0.358219
  0
VERTEX
  8
EBENE_1
  6
CONTINUOUS
 10
-0.874225
 20
0.369925
  0
VERTEX
  8
EBENE_1
  6
CONTINUOUS
 10
-0.869261
 20
0.381552
  0
VERTEX
  8
EBENE_1
  6
CONTINUOUS
 10
-0.864147
 20
0.393099
  0
VERTEX
  8
EBENE_1
  6
CONTINUOUS
 10
-0.858884
 20
0.404565
  0
VERTEX
  8
EBENE_1
  6
CONTINUOUS
 10
-0.853474
 20
0.415948
  0
VERTEX
  8
EBENE_1
  6
CONTINUOUS
 10
-0.847919
 20
0.427247
  0
VERTEX
  8
EBENE_1
  6
CONTINUOUS
 10
-0.842218
 20
0.438462
  0
VERTEX
  8
EBENE_1
  6
CONTINUOUS
 10
-0.836374
 20
0.449590
  0
VERTEX
  8
EBENE_1
  6
CONTINUOUS
 10
-0.830388
 20
0.460631
  0
VERTEX
  8
EBENE_1
  6
CONTINUOUS
 10
-0.824260
 20
0.471583
  0
VERTEX
  8
EBENE_1
  6
CONTINUOUS
 10
-0.817993
 20
0.482445
  0
VERTEX
  8
EBENE_1
  6
CONTINUOUS
 10
-0.811586
 20
0.493217
  0
VERTEX
  8
EBENE_1
  6
CONTINUOUS
 10
-0.805043
 20
0.503896
  0
VERTEX
  8
EBENE_1
  6
CONTINUOUS
 10
-0.798363
 20
0.514481
  0
VERTEX
  8
EBENE_1
  6
CONTINUOUS
 10
-0.791548
 20
0.524972
  0
VERTEX
  8
EBENE_1
  6
CONTINUOUS
 10
-0.784599
 20
0.535366
  0
VERTEX
  8
EBENE_1
  6
CONTINUOUS
 10
-0.777518
 20
0.545664
  0
VERTEX
  8
EBENE_1
  6
CONTINUOUS
 10
-0.770306
 20
0.555863
  0
VERTEX
  8
EBENE_1
  6
CONTINUOUS
 10
-0.762963
 20
0.565963
  0
VERTEX
  8
EBENE_1
  6
CONTINUOUS
 10
-0.755491
 20
0.575961
  0
VERTEX
  8
EBENE_1
  6
CONTINUOUS
 10
-0.747892
 20
0.585858
  0
VERTEX
  8
EBENE_1
  6
CONTINUOUS
 10
-0.740166
 20
0.595651
  0
VERTEX
  8
EBENE_1
  6
CONTINUOUS
 10
-0.732315
 20
0.605340
  0
VERTEX
  8
EBENE_1
  6
CONTINUOUS
 10
-0.724340
 20
0.614923
  0
VERTEX
  8
EBENE_1
  6
CONTINUOUS
 10
-0.716242
 20
0.624399
  0
VERTEX
  8
EBENE_1
  6
CONTINUOUS
 10
-0.708022
 20
0.633767
  0
VERTEX
  8
EBENE_1
  6
CONTINUOUS
 10
-0.699682
 20
0.643026
  0
VERTEX
  8
EBENE_1
  6
CONTINUOUS
 10
-0.691223
 20
0.652174
  0
VERTEX
  8
EBENE_1
  6
CONTINUOUS
 10
-0.682646
 20
0.661210
  0
VERTEX
  8
EBENE_1
  6
CONTINUOUS
 10
-0.673953
 20
0.670133
  0
VERTEX
  8
EBENE_1
  6
CONTINUOUS
 10
-0.665144
 20
0.678942
  0
VERTEX
  8
EBENE_1
  6
CONTINUOUS
 10
-0.656220
 20
0.687636
  0
VERTEX
  8
EBENE_1
  6
CONTINUOUS
 10
-0.647184
 20
0.696212
  0
VERTEX
  8
EBENE_1
  6
CONTINUOUS
 10
-0.638035
 20
0.704671
  0
VERTEX
  8
EBENE_1
  6
CONTINUOUS
 10
-0.628776
 20
0.713011
  0
VERTEX
  8
EBENE_1
  6
CONTINUOUS
 10
-0.619408
 20
0.721230
  0
VERTEX
  8
EBENE_1
  6
CONTINUOUS
 10
-0.609932
 20
0.729327
  0
VERTEX
  8
EBENE_1
  6
CONTINUOUS
 10
-0.600348
 20
0.737302
  0
VERTEX
  8
EBENE_1
  6
CONTINUOUS
 10
-0.590659
 20
0.745153
  0
VERTEX
  8
EBENE_1
  6
CONTINUOUS
 10
-0.580865
 20
0.752878
  0
VERTEX
  8
EBENE_1
  6
CONTINUOUS
 10
-0.570968
 20
0.760477
  0
VERTEX
  8
EBENE_1
  6
CONTINUOUS
 10
-0.560969
 20
0.767949
  0
VERTEX
  8
EBENE_1
  6
CONTINUOUS
 10
-0.550870
 20
0.775291
  0
VERTEX
  8
EBENE_1
  6
CONTINUOUS
 10
-0.540670
 20
0.782503
  0
VERTEX
  8
EBENE_1
  6
CONTINUOUS
 10
-0.530372
 20
0.789584
  0
VERTEX
  8
EBENE_1
  6
CONTINUOUS
 10
-0.519977
 20
0.796533
  0
VERTEX
  8
EBENE_1
  6
CONTINUOUS
 10
-0.509486
 20
0.803347
  0
VERTEX
  8
EBENE_1
  6
CONTINUOUS
 10
-0.498900
 20
0.810027
  0
VERTEX
  8
EBENE_1
  6
CONTINUOUS
 10
-0.488221
 20
0.816570
  0
VERTEX
  8
EBENE_1
  6
CONTINUOUS
 10
-0.477450
 20
0.822976
  0
VERTEX
  8
EBENE_1
  6
CONTINUOUS
 10
-0.466587
 20
0.829243
  0
VERTEX
  8
EBENE_1
  6
CONTINUOUS
 10
-0.455635
 20
0.835370
  0
VERTEX
  8
EBENE_1
  6
CONTINUOUS
 10
-0.444594
 20
0.841356
  0
VERTEX
  8
EBENE_1
  6
CONTINUOUS
 10
-0.433465
 20
0.847200
  0
VERTEX
  8
EBENE_1
  6
CONTINUOUS
 10
-0.422250
 20
0.852901
  0
VERTEX
  8
EBENE_1
  6
CONTINUOUS
 10
-0.410951
 20
0.858456
  0
VERTEX
  8
EBENE_1
  6
CONTINUOUS
 10
-0.399567
 20
0.863865
  0
VERTEX
  8
EBENE_1
  6
CONTINUOUS
 10
-0.388101
 20
0.869128
  0
VERTEX
  8
EBENE_1
  6
CONTINUOUS
 10
-0.376554
 20
0.874241
  0
VERTEX
  8
EBENE_1
  6
CONTINUOUS
 10
-0.364927
 20
0.879206
  0
VERTEX
  8
EBENE_1
  6
CONTINUOUS
 10
-0.353220
 20
0.884019
  0
VERTEX
  8
EBENE_1
  6
CONTINUOUS
 10
-0.341436
 20
0.888680
  0
VERTEX
  8
EBENE_1
  6
CONTINUOUS
 10
-0.329576
 20
0.893188
  0
VERTEX
  8
EBENE_1
  6
CONTINUOUS
 10
-0.317641
 20
0.897541
  0
VERTEX
  8
EBENE_1
  6
CONTINUOUS
 10
-0.305631
 20
0.901738
  0
VERTEX
  8
EBENE_1
  6
CONTINUOUS
 10
-0.293549
 20
0.905779
  0
VERTEX
  8
EBENE_1
  6
CONTINUOUS
 10
-0.281395
 20
0.909661
  0
VERTEX
  8
EBENE_1
  6
CONTINUOUS
 10
-0.269171
 20
0.913384
  0
VERTEX
  8
EBENE_1
  6
CONTINUOUS
 10
-0.256878
 20
0.916946
  0
VERTEX
  8
EBENE_1
  6
CONTINUOUS
 10
-0.244517
 20
0.920347
  0
VERTEX
  8
EBENE_1
  6
CONTINUOUS
 10
-0.232089
 20
0.923584
  0
VERTEX
  8
EBENE_1
  6
CONTINUOUS
 10
-0.219596
 20
0.926657
  0
VERTEX
  8
EBENE_1
  6
CONTINUOUS
 10
-0.207038
 20
0.929564
  0
VERTEX
  8
EBENE_1
  6
CONTINUOUS
 10
-0.194418
 20
0.932305
  0
VERTEX
  8
EBENE_1
  6
CONTINUOUS
 10
-0.181736
 20
0.934878
  0
VERTEX
  8
EBENE_1
  6
CONTINUOUS
 10
-0.168993
 20
0.937281
  0
VERTEX
  8
EBENE_1
  6
CONTINUOUS
 10
-0.156191
 20
0.939514
  0
VERTEX
  8
EBENE_1
  6
CONTINUOUS
 10
-0.143331
 20
0.941576
  0
VERTEX
  8
EBENE_1
  6
CONTINUOUS
 10
-0.130414
 20
0.943464
  0
VERTEX
  8
EBENE_1
  6
CONTINUOUS
 10
-0.117441
 20
0.945179
  0
VERTEX
  8
EBENE_1
  6
CONTINUOUS
 10
-0.104414
 20
0.946718
  0
VERTEX
  8
EBENE_1
  6
CONTINUOUS
 10
-0.091333
 20
0.948081
  0
VERTEX
  8
EBENE_1
  6
CONTINUOUS
 10
-0.078201
 20
0.949266
  0
VERTEX
  8
EBENE_1
  6
CONTINUOUS
 10
-0.065017
 20
0.950272
  0
VERTEX
  8
EBENE_1
  6
CONTINUOUS
 10
-0.051785
 20
0.951098
  0
VERTEX
  8
EBENE_1
  6
CONTINUOUS
 10
-0.038503
 20
0.951742
  0
VERTEX
  8
EBENE_1
  6
CONTINUOUS
 10
-0.025175
 20
0.952204
  0
VERTEX
  8
EBENE_1
  6
CONTINUOUS
 10
-0.011801
 20
0.952482
  0
VERTEX
  8
EBENE_1
  6
CONTINUOUS
 10
0.001618
 20
0.952575
  0
SEQEND
  8
0
  0
POLYLINE
  8
EBENE_1
  6
CONTINUOUS
 66
     1
 40
0.047244
 41
0.047244
  0
VERTEX
  8
EBENE_1
  6
CONTINUOUS
 10
0.001618
 20
0.952575
  0
VERTEX
  8
EBENE_1
  6
CONTINUOUS
 10
0.015040
 20
0.952482
  0
VERTEX
  8
EBENE_1
  6
CONTINUOUS
 10
0.028417
 20
0.952204
  0
VERTEX
  8
EBENE_1
  6
CONTINUOUS
 10
0.041748
 20
0.951742
  0
VERTEX
  8
EBENE_1
  6
CONTINUOUS
 10
0.055032
 20
0.951098
  0
VERTEX
  8
EBENE_1
  6
CONTINUOUS
 10
0.068268
 20
0.950272
  0
VERTEX
  8
EBENE_1
  6
CONTINUOUS
 10
0.081453
 20
0.949266
  0
VERTEX
  8
EBENE_1
  6
CONTINUOUS
 10
0.094589
 20
0.948081
  0
VERTEX
  8
EBENE_1
  6
CONTINUOUS
 10
0.107672
 20
0.946718
  0
VERTEX
  8
EBENE_1
  6
CONTINUOUS
 10
0.120701
 20
0.945179
  0
VERTEX
  8
EBENE_1
  6
CONTINUOUS
 10
0.133677
 20
0.943464
  0
VERTEX
  8
EBENE_1
  6
CONTINUOUS
 10
0.146596
 20
0.941576
  0
VERTEX
  8
EBENE_1
  6
CONTINUOUS
 10
0.159459
 20
0.939514
  0
VERTEX
  8
EBENE_1
  6
CONTINUOUS
 10
0.172263
 20
0.937281
  0
VERTEX
  8
EBENE_1
  6
CONTINUOUS
 10
0.185008
 20
0.934878
  0
VERTEX
  8
EBENE_1
  6
CONTINUOUS
 10
0.197692
 20
0.932305
  0
VERTEX
  8
EBENE_1
  6
CONTINUOUS
 10
0.210315
 20
0.929564
  0
VERTEX
  8
EBENE_1
  6
CONTINUOUS
 10
0.222875
 20
0.926657
  0
VERTEX
  8
EBENE_1
  6
CONTINUOUS
 10
0.235370
 20
0.923584
  0
VERTEX
  8
EBENE_1
  6
CONTINUOUS
 10
0.247800
 20
0.920347
  0
VERTEX
  8
EBENE_1
  6
CONTINUOUS
 10
0.260163
 20
0.916946
  0
VERTEX
  8
EBENE_1
  6
CONTINUOUS
 10
0.272458
 20
0.913384
  0
VERTEX
  8
EBENE_1
  6
CONTINUOUS
 10
0.284684
 20
0.909661
  0
VERTEX
  8
EBENE_1
  6
CONTINUOUS
 10
0.296840
 20
0.905779
  0
VERTEX
  8
EBENE_1
  6
CONTINUOUS
 10
0.308924
 20
0.901738
  0
VERTEX
  8
EBENE_1
  6
CONTINUOUS
 10
0.320935
 20
0.897541
  0
VERTEX
  8
EBENE_1
  6
CONTINUOUS
 10
0.332872
 20
0.893188
  0
VERTEX
  8
EBENE_1
  6
CONTINUOUS
 10
0.344734
 20
0.888680
  0
VERTEX
  8
EBENE_1
  6
CONTINUOUS
 10
0.356520
 20
0.884019
  0
VERTEX
  8
EBENE_1
  6
CONTINUOUS
 10
0.368228
 20
0.879206
  0
VERTEX
  8
EBENE_1
  6
CONTINUOUS
 10
0.379857
 20
0.874241
  0
VERTEX
  8
EBENE_1
  6
CONTINUOUS
 10
0.391406
 20
0.869128
  0
VERTEX
  8
EBENE_1
  6
CONTINUOUS
 10
0.402873
 20
0.863865
  0
VERTEX
  8
EBENE_1
  6
CONTINUOUS
 10
0.414258
 20
0.858456
  0
VERTEX
  8
EBENE_1
  6
CONTINUOUS
 10
0.425559
 20
0.852901
  0
VERTEX
  8
EBENE_1
  6
CONTINUOUS
 10
0.436775
 20
0.847200
  0
VERTEX
  8
EBENE_1
  6
CONTINUOUS
 10
0.447905
 20
0.841356
  0
VERTEX
  8
EBENE_1
  6
CONTINUOUS
 10
0.458948
 20
0.835370
  0
VERTEX
  8
EBENE_1
  6
CONTINUOUS
 10
0.469901
 20
0.829243
  0
VERTEX
  8
EBENE_1
  6
CONTINUOUS
 10
0.480765
 20
0.822976
  0
VERTEX
  8
EBENE_1
  6
CONTINUOUS
 10
0.491538
 20
0.816570
  0
VERTEX
  8
EBENE_1
  6
CONTINUOUS
 10
0.502218
 20
0.810027
  0
VERTEX
  8
EBENE_1
  6
CONTINUOUS
 10
0.512805
 20
0.803347
  0
VERTEX
  8
EBENE_1
  6
CONTINUOUS
 10
0.523298
 20
0.796533
  0
VERTEX
  8
EBENE_1
  6
CONTINUOUS
 10
0.533694
 20
0.789584
  0
VERTEX
  8
EBENE_1
  6
CONTINUOUS
 10
0.543993
 20
0.782503
  0
VERTEX
  8
EBENE_1
  6
CONTINUOUS
 10
0.554193
 20
0.775291
  0
VERTEX
  8
EBENE_1
  6
CONTINUOUS
 10
0.564294
 20
0.767949
  0
VERTEX
  8
EBENE_1
  6
CONTINUOUS
 10
0.574294
 20
0.760477
  0
VERTEX
  8
EBENE_1
  6
CONTINUOUS
 10
0.584192
 20
0.752878
  0
VERTEX
  8
EBENE_1
  6
CONTINUOUS
 10
0.593986
 20
0.745153
  0
VERTEX
  8
EBENE_1
  6
CONTINUOUS
 10
0.603676
 20
0.737302
  0
VERTEX
  8
EBENE_1
  6
CONTINUOUS
 10
0.613261
 20
0.729327
  0
VERTEX
  8
EBENE_1
  6
CONTINUOUS
 10
0.622738
 20
0.721230
  0
VERTEX
  8
EBENE_1
  6
CONTINUOUS
 10
0.632107
 20
0.713011
  0
VERTEX
  8
EBENE_1
  6
CONTINUOUS
 10
0.641367
 20
0.704671
  0
VERTEX
  8
EBENE_1
  6
CONTINUOUS
 10
0.650516
 20
0.696212
  0
VERTEX
  8
EBENE_1
  6
CONTINUOUS
 10
0.659553
 20
0.687636
  0
VERTEX
  8
EBENE_1
  6
CONTINUOUS
 10
0.668477
 20
0.678942
  0
VERTEX
  8
EBENE_1
  6
CONTINUOUS
 10
0.677287
 20
0.670133
  0
VERTEX
  8
EBENE_1
  6
CONTINUOUS
 10
0.685982
 20
0.661210
  0
VERTEX
  8
EBENE_1
  6
CONTINUOUS
 10
0.694559
 20
0.652174
  0
VERTEX
  8
EBENE_1
  6
CONTINUOUS
 10
0.703019
 20
0.643026
  0
VERTEX
  8
EBENE_1
  6
CONTINUOUS
 10
0.711359
 20
0.633767
  0
VERTEX
  8
EBENE_1
  6
CONTINUOUS
 10
0.719579
 20
0.624399
  0
VERTEX
  8
EBENE_1
  6
CONTINUOUS
 10
0.727678
 20
0.614923
  0
VERTEX
  8
EBENE_1
  6
CONTINUOUS
 10
0.735654
 20
0.605340
  0
VERTEX
  8
EBENE_1
  6
CONTINUOUS
 10
0.743505
 20
0.595651
  0
VERTEX
  8
EBENE_1
  6
CONTINUOUS
 10
0.751231
 20
0.585858
  0
VERTEX
  8
EBENE_1
  6
CONTINUOUS
 10
0.758831
 20
0.575961
  0
VERTEX
  8
EBENE_1
  6
CONTINUOUS
 10
0.766303
 20
0.565963
  0
VERTEX
  8
EBENE_1
  6
CONTINUOUS
 10
0.773646
 20
0.555863
  0
VERTEX
  8
EBENE_1
  6
CONTINUOUS
 10
0.780859
 20
0.545664
  0
VERTEX
  8
EBENE_1
  6
CONTINUOUS
 10
0.787941
 20
0.535366
  0
VERTEX
  8
EBENE_1
  6
CONTINUOUS
 10
0.794890
 20
0.524972
  0
VERTEX
  8
EBENE_1
  6
CONTINUOUS
 10
0.801705
 20
0.514481
  0
VERTEX
  8
EBENE_1
  6
CONTINUOUS
 10
0.808385
 20
0.503896
  0
VERTEX
  8
EBENE_1
  6
CONTINUOUS
 10
0.814929
 20
0.493217
  0
VERTEX
  8
EBENE_1
  6
CONTINUOUS
 10
0.821336
 20
0.482445
  0
VERTEX
  8
EBENE_1
  6
CONTINUOUS
 10
0.827604
 20
0.471583
  0
VERTEX
  8
EBENE_1
  6
CONTINUOUS
 10
0.833731
 20
0.460631
  0
VERTEX
  8
EBENE_1
  6
CONTINUOUS
 10
0.839718
 20
0.449590
  0
VERTEX
  8
EBENE_1
  6
CONTINUOUS
 10
0.845562
 20
0.438462
  0
VERTEX
  8
EBENE_1
  6
CONTINUOUS
 10
0.851263
 20
0.427247
  0
VERTEX
  8
EBENE_1
  6
CONTINUOUS
 10
0.856819
 20
0.415948
  0
VERTEX
  8
EBENE_1
  6
CONTINUOUS
 10
0.862229
 20
0.404565
  0
VERTEX
  8
EBENE_1
  6
CONTINUOUS
 10
0.867492
 20
0.393099
  0
VERTEX
  8
EBENE_1
  6
CONTINUOUS
 10
0.872606
 20
0.381552
  0
VERTEX
  8
EBENE_1
  6
CONTINUOUS
 10
0.877570
 20
0.369925
  0
VERTEX
  8
EBENE_1
  6
CONTINUOUS
 10
0.882384
 20
0.358219
  0
VERTEX
  8
EBENE_1
  6
CONTINUOUS
 10
0.887045
 20
0.346435
  0
VERTEX
  8
EBENE_1
  6
CONTINUOUS
 10
0.891554
 20
0.334575
  0
VERTEX
  8
EBENE_1
  6
CONTINUOUS
 10
0.895907
 20
0.322639
  0
VERTEX
  8
EBENE_1
  6
CONTINUOUS
 10
0.900105
 20
0.310630
  0
VERTEX
  8
EBENE_1
  6
CONTINUOUS
 10
0.904146
 20
0.298548
  0
VERTEX
  8
EBENE_1
  6
CONTINUOUS
 10
0.908028
 20
0.286394
  0
VERTEX
  8
EBENE_1
  6
CONTINUOUS
 10
0.911752
 20
0.274170
  0
VERTEX
  8
EBENE_1
  6
CONTINUOUS
 10
0.915314
 20
0.261877
  0
VERTEX
  8
EBENE_1
  6
CONTINUOUS
 10
0.918715
 20
0.249516
  0
VERTEX
  8
EBENE_1
  6
CONTINUOUS
 10
0.921952
 20
0.237089
  0
VERTEX
  8
EBENE_1
  6
CONTINUOUS
 10
0.925025
 20
0.224596
  0
VERTEX
  8
EBENE_1
  6
CONTINUOUS
 10
0.927933
 20
0.212038
  0
VERTEX
  8
EBENE_1
  6
CONTINUOUS
 10
0.930674
 20
0.199418
  0
VERTEX
  8
EBENE_1
  6
CONTINUOUS
 10
0.933247
 20
0.186736
  0
VERTEX
  8
EBENE_1
  6
CONTINUOUS
 10
0.935650
 20
0.173993
  0
VERTEX
  8
EBENE_1
  6
CONTINUOUS
 10
0.937883
 20
0.161191
  0
VERTEX
  8
EBENE_1
  6
CONTINUOUS
 10
0.939945
 20
0.148331
  0
VERTEX
  8
EBENE_1
  6
CONTINUOUS
 10
0.941834
 20
0.135414
  0
VERTEX
  8
EBENE_1
  6
CONTINUOUS
 10
0.943548
 20
0.122441
  0
VERTEX
  8
EBENE_1
  6
CONTINUOUS
 10
0.945088
 20
0.109414
  0
VERTEX
  8
EBENE_1
  6
CONTINUOUS
 10
0.946451
 20
0.096333
  0
VERTEX
  8
EBENE_1
  6
CONTINUOUS
 10
0.947636
 20
0.083201
  0
VERTEX
  8
EBENE_1
  6
CONTINUOUS
 10
0.948642
 20
0.070018
  0
VERTEX
  8
EBENE_1
  6
CONTINUOUS
 10
0.949468
 20
0.056785
  0
VERTEX
  8
EBENE_1
  6
CONTINUOUS
 10
0.950112
 20
0.043504
  0
VERTEX
  8
EBENE_1
  6
CONTINUOUS
 10
0.950574
 20
0.030175
  0
VERTEX
  8
EBENE_1
  6
CONTINUOUS
 10
0.950852
 20
0.016801
  0
VERTEX
  8
EBENE_1
  6
CONTINUOUS
 10
0.950945
 20
0.003382
  0
SEQEND
  8
0
  0
POLYLINE
  8
EBENE_1
 62
   146
  6
CONTINUOUS
 66
     1
 40
0.009445
 41
0.009445
  0
VERTEX
  8
EBENE_1
 62
   146
  6
CONTINUOUS
 10
0.979374
 20
0.003382
  0
VERTEX
  8
EBENE_1
 62
   146
  6
CONTINUOUS
 10
0.979284
 20
-0.009990
  0
VERTEX
  8
EBENE_1
 62
   146
  6
CONTINUOUS
 10
0.979017
 20
-0.023319
  0
VERTEX
  8
EBENE_1
 62
   146
  6
CONTINUOUS
 10
0.978572
 20
-0.036605
  0
VERTEX
  8
EBENE_1
 62
   146
  6
CONTINUOUS
 10
0.977951
 20
-0.049844
  0
VERTEX
  8
EBENE_1
 62
   146
  6
CONTINUOUS
 10
0.977155
 20
-0.063038
  0
VERTEX
  8
EBENE_1
 62
   146
  6
CONTINUOUS
 10
0.976185
 20
-0.076183
  0
VERTEX
  8
EBENE_1
 62
   146
  6
CONTINUOUS
 10
0.975043
 20
-0.089281
  0
VERTEX
  8
EBENE_1
 62
   146
  6
CONTINUOUS
 10
0.973729
 20
-0.102328
  0
VERTEX
  8
EBENE_1
 62
   146
  6
CONTINUOUS
 10
0.972246
 20
-0.115324
  0
VERTEX
  8
EBENE_1
 62
   146
  6
CONTINUOUS
 10
0.970592
 20
-0.128268
  0
VERTEX
  8
EBENE_1
 62
   146
  6
CONTINUOUS
 10
0.968771
 20
-0.141159
  0
VERTEX
  8
EBENE_1
 62
   146
  6
CONTINUOUS
 10
0.966783
 20
-0.153996
  0
VERTEX
  8
EBENE_1
 62
   146
  6
CONTINUOUS
 10
0.964629
 20
-0.166777
  0
VERTEX
  8
EBENE_1
 62
   146
  6
CONTINUOUS
 10
0.962311
 20
-0.179502
  0
VERTEX
  8
EBENE_1
 62
   146
  6
CONTINUOUS
 10
0.959828
 20
-0.192168
  0
VERTEX
  8
EBENE_1
 62
   146
  6
CONTINUOUS
 10
0.957184
 20
-0.204776
  0
VERTEX
  8
EBENE_1
 62
   146
  6
CONTINUOUS
 10
0.954378
 20
-0.217324
  0
VERTEX
  8
EBENE_1
 62
   146
  6
CONTINUOUS
 10
0.951413
 20
-0.229810
  0
VERTEX
  8
EBENE_1
 62
   146
  6
CONTINUOUS
 10
0.948288
 20
-0.242234
  0
VERTEX
  8
EBENE_1
 62
   146
  6
CONTINUOUS
 10
0.945005
 20
-0.254595
  0
VERTEX
  8
EBENE_1
 62
   146
  6
CONTINUOUS
 10
0.941566
 20
-0.266891
  0
VERTEX
  8
EBENE_1
 62
   146
  6
CONTINUOUS
 10
0.937971
 20
-0.279121
  0
VERTEX
  8
EBENE_1
 62
   146
  6
CONTINUOUS
 10
0.934222
 20
-0.291285
  0
VERTEX
  8
EBENE_1
 62
   146
  6
CONTINUOUS
 10
0.930320
 20
-0.303380
  0
VERTEX
  8
EBENE_1
 62
   146
  6
CONTINUOUS
 10
0.926265
 20
-0.315406
  0
VERTEX
  8
EBENE_1
 62
   146
  6
CONTINUOUS
 10
0.922060
 20
-0.327362
  0
VERTEX
  8
EBENE_1
 62
   146
  6
CONTINUOUS
 10
0.917704
 20
-0.339246
  0
VERTEX
  8
EBENE_1
 62
   146
  6
CONTINUOUS
 10
0.913200
 20
-0.351058
  0
VERTEX
  8
EBENE_1
 62
   146
  6
CONTINUOUS
 10
0.908548
 20
-0.362796
  0
VERTEX
  8
EBENE_1
 62
   146
  6
CONTINUOUS
 10
0.903750
 20
-0.374460
  0
VERTEX
  8
EBENE_1
 62
   146
  6
CONTINUOUS
 10
0.898807
 20
-0.386047
  0
VERTEX
  8
EBENE_1
 62
   146
  6
CONTINUOUS
 10
0.893719
 20
-0.397557
  0
VERTEX
  8
EBENE_1
 62
   146
  6
CONTINUOUS
 10
0.888488
 20
-0.408989
  0
VERTEX
  8
EBENE_1
 62
   146
  6
CONTINUOUS
 10
0.883115
 20
-0.420342
  0
VERTEX
  8
EBENE_1
 62
   146
  6
CONTINUOUS
 10
0.877602
 20
-0.431614
  0
VERTEX
  8
EBENE_1
 62
   146
  6
CONTINUOUS
 10
0.871949
 20
-0.442804
  0
VERTEX
  8
EBENE_1
 62
   146
  6
CONTINUOUS
 10
0.866158
 20
-0.453911
  0
VERTEX
  8
EBENE_1
 62
   146
  6
CONTINUOUS
 10
0.860229
 20
-0.464935
  0
VERTEX
  8
EBENE_1
 62
   146
  6
CONTINUOUS
 10
0.854164
 20
-0.475873
  0
VERTEX
  8
EBENE_1
 62
   146
  6
CONTINUOUS
 10
0.847963
 20
-0.486725
  0
VERTEX
  8
EBENE_1
 62
   146
  6
CONTINUOUS
 10
0.841629
 20
-0.497490
  0
VERTEX
  8
EBENE_1
 62
   146
  6
CONTINUOUS
 10
0.835162
 20
-0.508167
  0
VERTEX
  8
EBENE_1
 62
   146
  6
CONTINUOUS
 10
0.828564
 20
-0.518753
  0
VERTEX
  8
EBENE_1
 62
   146
  6
CONTINUOUS
 10
0.821835
 20
-0.529249
  0
VERTEX
  8
EBENE_1
 62
   146
  6
CONTINUOUS
 10
0.814976
 20
-0.539653
  0
VERTEX
  8
EBENE_1
 62
   146
  6
CONTINUOUS
 10
0.807989
 20
-0.549964
  0
VERTEX
  8
EBENE_1
 62
   146
  6
CONTINUOUS
 10
0.800876
 20
-0.560181
  0
VERTEX
  8
EBENE_1
 62
   146
  6
CONTINUOUS
 10
0.793636
 20
-0.570302
  0
VERTEX
  8
EBENE_1
 62
   146
  6
CONTINUOUS
 10
0.786271
 20
-0.580327
  0
VERTEX
  8
EBENE_1
 62
   146
  6
CONTINUOUS
 10
0.778782
 20
-0.590254
  0
VERTEX
  8
EBENE_1
 62
   146
  6
CONTINUOUS
 10
0.771171
 20
-0.600083
  0
VERTEX
  8
EBENE_1
 62
   146
  6
CONTINUOUS
 10
0.763439
 20
-0.609812
  0
VERTEX
  8
EBENE_1
 62
   146
  6
CONTINUOUS
 10
0.755586
 20
-0.619439
  0
VERTEX
  8
EBENE_1
 62
   146
  6
CONTINUOUS
 10
0.747614
 20
-0.628965
  0
VERTEX
  8
EBENE_1
 62
   146
  6
CONTINUOUS
 10
0.739524
 20
-0.638387
  0
VERTEX
  8
EBENE_1
 62
   146
  6
CONTINUOUS
 10
0.731318
 20
-0.647705
  0
VERTEX
  8
EBENE_1
 62
   146
  6
CONTINUOUS
 10
0.722995
 20
-0.656917
  0
VERTEX
  8
EBENE_1
 62
   146
  6
CONTINUOUS
 10
0.714558
 20
-0.666023
  0
VERTEX
  8
EBENE_1
 62
   146
  6
CONTINUOUS
 10
0.706007
 20
-0.675020
  0
VERTEX
  8
EBENE_1
 62
   146
  6
CONTINUOUS
 10
0.697344
 20
-0.683909
  0
VERTEX
  8
EBENE_1
 62
   146
  6
CONTINUOUS
 10
0.688570
 20
-0.692687
  0
VERTEX
  8
EBENE_1
 62
   146
  6
CONTINUOUS
 10
0.679686
 20
-0.701355
  0
VERTEX
  8
EBENE_1
 62
   146
  6
CONTINUOUS
 10
0.670693
 20
-0.709910
  0
VERTEX
  8
EBENE_1
 62
   146
  6
CONTINUOUS
 10
0.661592
 20
-0.718351
  0
VERTEX
  8
EBENE_1
 62
   146
  6
CONTINUOUS
 10
0.652384
 20
-0.726678
  0
VERTEX
  8
EBENE_1
 62
   146
  6
CONTINUOUS
 10
0.643071
 20
-0.734889
  0
VERTEX
  8
EBENE_1
 62
   146
  6
CONTINUOUS
 10
0.633653
 20
-0.742983
  0
VERTEX
  8
EBENE_1
 62
   146
  6
CONTINUOUS
 10
0.624132
 20
-0.750959
  0
VERTEX
  8
EBENE_1
 62
   146
  6
CONTINUOUS
 10
0.614510
 20
-0.758815
  0
VERTEX
  8
EBENE_1
 62
   146
  6
CONTINUOUS
 10
0.604786
 20
-0.766551
  0
VERTEX
  8
EBENE_1
 62
   146
  6
CONTINUOUS
 10
0.594962
 20
-0.774166
  0
VERTEX
  8
EBENE_1
 62
   146
  6
CONTINUOUS
 10
0.585040
 20
-0.781658
  0
VERTEX
  8
EBENE_1
 62
   146
  6
CONTINUOUS
 10
0.575020
 20
-0.789027
  0
VERTEX
  8
EBENE_1
 62
   146
  6
CONTINUOUS
 10
0.564903
 20
-0.796270
  0
VERTEX
  8
EBENE_1
 62
   146
  6
CONTINUOUS
 10
0.554692
 20
-0.803388
  0
VERTEX
  8
EBENE_1
 62
   146
  6
CONTINUOUS
 10
0.544386
 20
-0.810378
  0
VERTEX
  8
EBENE_1
 62
   146
  6
CONTINUOUS
 10
0.533987
 20
-0.817240
  0
VERTEX
  8
EBENE_1
 62
   146
  6
CONTINUOUS
 10
0.523496
 20
-0.823972
  0
VERTEX
  8
EBENE_1
 62
   146
  6
CONTINUOUS
 10
0.512915
 20
-0.830574
  0
VERTEX
  8
EBENE_1
 62
   146
  6
CONTINUOUS
 10
0.502244
 20
-0.837045
  0
VERTEX
  8
EBENE_1
 62
   146
  6
CONTINUOUS
 10
0.491484
 20
-0.843382
  0
VERTEX
  8
EBENE_1
 62
   146
  6
CONTINUOUS
 10
0.480638
 20
-0.849585
  0
VERTEX
  8
EBENE_1
 62
   146
  6
CONTINUOUS
 10
0.469705
 20
-0.855653
  0
VERTEX
  8
EBENE_1
 62
   146
  6
CONTINUOUS
 10
0.458687
 20
-0.861585
  0
VERTEX
  8
EBENE_1
 62
   146
  6
CONTINUOUS
 10
0.447585
 20
-0.867379
  0
VERTEX
  8
EBENE_1
 62
   146
  6
CONTINUOUS
 10
0.436400
 20
-0.873035
  0
VERTEX
  8
EBENE_1
 62
   146
  6
CONTINUOUS
 10
0.425133
 20
-0.878551
  0
VERTEX
  8
EBENE_1
 62
   146
  6
CONTINUOUS
 10
0.413787
 20
-0.883927
  0
VERTEX
  8
EBENE_1
 62
   146
  6
CONTINUOUS
 10
0.402360
 20
-0.889160
  0
VERTEX
  8
EBENE_1
 62
   146
  6
CONTINUOUS
 10
0.390856
 20
-0.894250
  0
VERTEX
  8
EBENE_1
 62
   146
  6
CONTINUOUS
 10
0.379274
 20
-0.899196
  0
VERTEX
  8
EBENE_1
 62
   146
  6
CONTINUOUS
 10
0.367617
 20
-0.903997
  0
VERTEX
  8
EBENE_1
 62
   146
  6
CONTINUOUS
 10
0.355884
 20
-0.908651
  0
VERTEX
  8
EBENE_1
 62
   146
  6
CONTINUOUS
 10
0.344078
 20
-0.913157
  0
VERTEX
  8
EBENE_1
 62
   146
  6
CONTINUOUS
 10
0.332200
 20
-0.917515
  0
VERTEX
  8
EBENE_1
 62
   146
  6
CONTINUOUS
 10
0.320250
 20
-0.921723
  0
VERTEX
  8
EBENE_1
 62
   146
  6
CONTINUOUS
 10
0.308229
 20
-0.925779
  0
VERTEX
  8
EBENE_1
 62
   146
  6
CONTINUOUS
 10
0.296140
 20
-0.929684
  0
VERTEX
  8
EBENE_1
 62
   146
  6
CONTINUOUS
 10
0.283983
 20
-0.933435
  0
VERTEX
  8
EBENE_1
 62
   146
  6
CONTINUOUS
 10
0.271758
 20
-0.937031
  0
VERTEX
  8
EBENE_1
 62
   146
  6
CONTINUOUS
 10
0.259468
 20
-0.940472
  0
VERTEX
  8
EBENE_1
 62
   146
  6
CONTINUOUS
 10
0.247114
 20
-0.943757
  0
VERTEX
  8
EBENE_1
 62
   146
  6
CONTINUOUS
 10
0.234696
 20
-0.946883
  0
VERTEX
  8
EBENE_1
 62
   146
  6
CONTINUOUS
 10
0.222215
 20
-0.949850
  0
VERTEX
  8
EBENE_1
 62
   146
  6
CONTINUOUS
 10
0.209674
 20
-0.952657
  0
VERTEX
  8
EBENE_1
 62
   146
  6
CONTINUOUS
 10
0.197072
 20
-0.955303
  0
VERTEX
  8
EBENE_1
 62
   146
  6
CONTINUOUS
 10
0.184412
 20
-0.957786
  0
VERTEX
  8
EBENE_1
 62
   146
  6
CONTINUOUS
 10
0.171694
 20
-0.960106
  0
VERTEX
  8
EBENE_1
 62
   146
  6
CONTINUOUS
 10
0.158919
 20
-0.962261
  0
VERTEX
  8
EBENE_1
 62
   146
  6
CONTINUOUS
 10
0.146089
 20
-0.964250
  0
VERTEX
  8
EBENE_1
 62
   146
  6
CONTINUOUS
 10
0.133204
 20
-0.966072
  0
VERTEX
  8
EBENE_1
 62
   146
  6
CONTINUOUS
 10
0.120266
 20
-0.967726
  0
VERTEX
  8
EBENE_1
 62
   146
  6
CONTINUOUS
 10
0.107276
 20
-0.969211
  0
VERTEX
  8
EBENE_1
 62
   146
  6
CONTINUOUS
 10
0.094235
 20
-0.970525
  0
VERTEX
  8
EBENE_1
 62
   146
  6
CONTINUOUS
 10
0.081145
 20
-0.971668
  0
VERTEX
  8
EBENE_1
 62
   146
  6
CONTINUOUS
 10
0.068005
 20
-0.972638
  0
VERTEX
  8
EBENE_1
 62
   146
  6
CONTINUOUS
 10
0.054818
 20
-0.973434
  0
VERTEX
  8
EBENE_1
 62
   146
  6
CONTINUOUS
 10
0.041585
 20
-0.974056
  0
VERTEX
  8
EBENE_1
 62
   146
  6
CONTINUOUS
 10
0.028306
 20
-0.974501
  0
VERTEX
  8
EBENE_1
 62
   146
  6
CONTINUOUS
 10
0.014984
 20
-0.974769
  0
VERTEX
  8
EBENE_1
 62
   146
  6
CONTINUOUS
 10
0.001618
 20
-0.974858
  0
SEQEND
  8
0
  0
POLYLINE
  8
EBENE_1
 62
   146
  6
CONTINUOUS
 66
     1
 40
0.009445
 41
0.009445
  0
VERTEX
  8
EBENE_1
 62
   146
  6
CONTINUOUS
 10
0.001618
 20
-0.974858
  0
VERTEX
  8
EBENE_1
 62
   146
  6
CONTINUOUS
 10
-0.011747
 20
-0.974769
  0
VERTEX
  8
EBENE_1
 62
   146
  6
CONTINUOUS
 10
-0.025070
 20
-0.974501
  0
VERTEX
  8
EBENE_1
 62
   146
  6
CONTINUOUS
 10
-0.038348
 20
-0.974056
  0
VERTEX
  8
EBENE_1
 62
   146
  6
CONTINUOUS
 10
-0.051581
 20
-0.973434
  0
VERTEX
  8
EBENE_1
 62
   146
  6
CONTINUOUS
 10
-0.064768
 20
-0.972638
  0
VERTEX
  8
EBENE_1
 62
   146
  6
CONTINUOUS
 10
-0.077906
 20
-0.971668
  0
VERTEX
  8
EBENE_1
 62
   146
  6
CONTINUOUS
 10
-0.090997
 20
-0.970525
  0
VERTEX
  8
EBENE_1
 62
   146
  6
CONTINUOUS
 10
-0.104037
 20
-0.969211
  0
VERTEX
  8
EBENE_1
 62
   146
  6
CONTINUOUS
 10
-0.117027
 20
-0.967726
  0
VERTEX
  8
EBENE_1
 62
   146
  6
CONTINUOUS
 10
-0.129964
 20
-0.966072
  0
VERTEX
  8
EBENE_1
 62
   146
  6
CONTINUOUS
 10
-0.142848
 20
-0.964250
  0
VERTEX
  8
EBENE_1
 62
   146
  6
CONTINUOUS
 10
-0.155678
 20
-0.962261
  0
VERTEX
  8
EBENE_1
 62
   146
  6
CONTINUOUS
 10
-0.168452
 20
-0.960106
  0
VERTEX
  8
EBENE_1
 62
   146
  6
CONTINUOUS
 10
-0.181169
 20
-0.957786
  0
VERTEX
  8
EBENE_1
 62
   146
  6
CONTINUOUS
 10
-0.193829
 20
-0.955303
  0
VERTEX
  8
EBENE_1
 62
   146
  6
CONTINUOUS
 10
-0.206430
 20
-0.952657
  0
VERTEX
  8
EBENE_1
 62
   146
  6
CONTINUOUS
 10
-0.218971
 20
-0.949850
  0
VERTEX
  8
EBENE_1
 62
   146
  6
CONTINUOUS
 10
-0.231450
 20
-0.946883
  0
VERTEX
  8
EBENE_1
 62
   146
  6
CONTINUOUS
 10
-0.243867
 20
-0.943757
  0
VERTEX
  8
EBENE_1
 62
   146
  6
CONTINUOUS
 10
-0.256221
 20
-0.940472
  0
VERTEX
  8
EBENE_1
 62
   146
  6
CONTINUOUS
 10
-0.268510
 20
-0.937031
  0
VERTEX
  8
EBENE_1
 62
   146
  6
CONTINUOUS
 10
-0.280734
 20
-0.933435
  0
VERTEX
  8
EBENE_1
 62
   146
  6
CONTINUOUS
 10
-0.292890
 20
-0.929684
  0
VERTEX
  8
EBENE_1
 62
   146
  6
CONTINUOUS
 10
-0.304978
 20
-0.925779
  0
VERTEX
  8
EBENE_1
 62
   146
  6
CONTINUOUS
 10
-0.316998
 20
-0.921723
  0
VERTEX
  8
EBENE_1
 62
   146
  6
CONTINUOUS
 10
-0.328947
 20
-0.917515
  0
VERTEX
  8
EBENE_1
 62
   146
  6
CONTINUOUS
 10
-0.340824
 20
-0.913157
  0
VERTEX
  8
EBENE_1
 62
   146
  6
CONTINUOUS
 10
-0.352629
 20
-0.908651
  0
VERTEX
  8
EBENE_1
 62
   146
  6
CONTINUOUS
 10
-0.364361
 20
-0.903997
  0
VERTEX
  8
EBENE_1
 62
   146
  6
CONTINUOUS
 10
-0.376017
 20
-0.899196
  0
VERTEX
  8
EBENE_1
 62
   146
  6
CONTINUOUS
 10
-0.387598
 20
-0.894250
  0
VERTEX
  8
EBENE_1
 62
   146
  6
CONTINUOUS
 10
-0.399101
 20
-0.889160
  0
VERTEX
  8
EBENE_1
 62
   146
  6
CONTINUOUS
 10
-0.410526
 20
-0.883927
  0
VERTEX
  8
EBENE_1
 62
   146
  6
CONTINUOUS
 10
-0.421872
 20
-0.878551
  0
VERTEX
  8
EBENE_1
 62
   146
  6
CONTINUOUS
 10
-0.433137
 20
-0.873035
  0
VERTEX
  8
EBENE_1
 62
   146
  6
CONTINUOUS
 10
-0.444321
 20
-0.867379
  0
VERTEX
  8
EBENE_1
 62
   146
  6
CONTINUOUS
 10
-0.455421
 20
-0.861585
  0
VERTEX
  8
EBENE_1
 62
   146
  6
CONTINUOUS
 10
-0.466438
 20
-0.855653
  0
VERTEX
  8
EBENE_1
 62
   146
  6
CONTINUOUS
 10
-0.477370
 20
-0.849585
  0
VERTEX
  8
EBENE_1
 62
   146
  6
CONTINUOUS
 10
-0.488215
 20
-0.843382
  0
VERTEX
  8
EBENE_1
 62
   146
  6
CONTINUOUS
 10
-0.498974
 20
-0.837045
  0
VERTEX
  8
EBENE_1
 62
   146
  6
CONTINUOUS
 10
-0.509643
 20
-0.830574
  0
VERTEX
  8
EBENE_1
 62
   146
  6
CONTINUOUS
 10
-0.520224
 20
-0.823972
  0
VERTEX
  8
EBENE_1
 62
   146
  6
CONTINUOUS
 10
-0.530713
 20
-0.817240
  0
VERTEX
  8
EBENE_1
 62
   146
  6
CONTINUOUS
 10
-0.541111
 20
-0.810378
  0
VERTEX
  8
EBENE_1
 62
   146
  6
CONTINUOUS
 10
-0.551415
 20
-0.803388
  0
VERTEX
  8
EBENE_1
 62
   146
  6
CONTINUOUS
 10
-0.561625
 20
-0.796270
  0
VERTEX
  8
EBENE_1
 62
   146
  6
CONTINUOUS
 10
-0.571740
 20
-0.789027
  0
VERTEX
  8
EBENE_1
 62
   146
  6
CONTINUOUS
 10
-0.581759
 20
-0.781658
  0
VERTEX
  8
EBENE_1
 62
   146
  6
CONTINUOUS
 10
-0.591680
 20
-0.774166
  0
VERTEX
  8
EBENE_1
 62
   146
  6
CONTINUOUS
 10
-0.601502
 20
-0.766551
  0
VERTEX
  8
EBENE_1
 62
   146
  6
CONTINUOUS
 10
-0.611225
 20
-0.758815
  0
VERTEX
  8
EBENE_1
 62
   146
  6
CONTINUOUS
 10
-0.620846
 20
-0.750959
  0
VERTEX
  8
EBENE_1
 62
   146
  6
CONTINUOUS
 10
-0.630366
 20
-0.742983
  0
VERTEX
  8
EBENE_1
 62
   146
  6
CONTINUOUS
 10
-0.639782
 20
-0.734889
  0
VERTEX
  8
EBENE_1
 62
   146
  6
CONTINUOUS
 10
-0.649094
 20
-0.726678
  0
VERTEX
  8
EBENE_1
 62
   146
  6
CONTINUOUS
 10
-0.658300
 20
-0.718351
  0
VERTEX
  8
EBENE_1
 62
   146
  6
CONTINUOUS
 10
-0.667400
 20
-0.709910
  0
VERTEX
  8
EBENE_1
 62
   146
  6
CONTINUOUS
 10
-0.676392
 20
-0.701355
  0
VERTEX
  8
EBENE_1
 62
   146
  6
CONTINUOUS
 10
-0.685274
 20
-0.692687
  0
VERTEX
  8
EBENE_1
 62
   146
  6
CONTINUOUS
 10
-0.694047
 20
-0.683909
  0
VERTEX
  8
EBENE_1
 62
   146
  6
CONTINUOUS
 10
-0.702709
 20
-0.675020
  0
VERTEX
  8
EBENE_1
 62
   146
  6
CONTINUOUS
 10
-0.711258
 20
-0.666023
  0
VERTEX
  8
EBENE_1
 62
   146
  6
CONTINUOUS
 10
-0.719694
 20
-0.656917
  0
VERTEX
  8
EBENE_1
 62
   146
  6
CONTINUOUS
 10
-0.728015
 20
-0.647705
  0
VERTEX
  8
EBENE_1
 62
   146
  6
CONTINUOUS
 10
-0.736221
 20
-0.638387
  0
VERTEX
  8
EBENE_1
 62
   146
  6
CONTINUOUS
 10
-0.744309
 20
-0.628965
  0
VERTEX
  8
EBENE_1
 62
   146
  6
CONTINUOUS
 10
-0.752280
 20
-0.619439
  0
VERTEX
  8
EBENE_1
 62
   146
  6
CONTINUOUS
 10
-0.760131
 20
-0.609812
  0
VERTEX
  8
EBENE_1
 62
   146
  6
CONTINUOUS
 10
-0.767862
 20
-0.600083
  0
VERTEX
  8
EBENE_1
 62
   146
  6
CONTINUOUS
 10
-0.775472
 20
-0.590254
  0
VERTEX
  8
EBENE_1
 62
   146
  6
CONTINUOUS
 10
-0.782959
 20
-0.580327
  0
VERTEX
  8
EBENE_1
 62
   146
  6
CONTINUOUS
 10
-0.790323
 20
-0.570302
  0
VERTEX
  8
EBENE_1
 62
   146
  6
CONTINUOUS
 10
-0.797561
 20
-0.560181
  0
VERTEX
  8
EBENE_1
 62
   146
  6
CONTINUOUS
 10
-0.804674
 20
-0.549964
  0
VERTEX
  8
EBENE_1
 62
   146
  6
CONTINUOUS
 10
-0.811659
 20
-0.539653
  0
VERTEX
  8
EBENE_1
 62
   146
  6
CONTINUOUS
 10
-0.818517
 20
-0.529249
  0
VERTEX
  8
EBENE_1
 62
   146
  6
CONTINUOUS
 10
-0.825244
 20
-0.518753
  0
VERTEX
  8
EBENE_1
 62
   146
  6
CONTINUOUS
 10
-0.831842
 20
-0.508167
  0
VERTEX
  8
EBENE_1
 62
   146
  6
CONTINUOUS
 10
-0.838308
 20
-0.497490
  0
VERTEX
  8
EBENE_1
 62
   146
  6
CONTINUOUS
 10
-0.844640
 20
-0.486725
  0
VERTEX
  8
EBENE_1
 62
   146
  6
CONTINUOUS
 10
-0.850839
 20
-0.475873
  0
VERTEX
  8
EBENE_1
 62
   146
  6
CONTINUOUS
 10
-0.856903
 20
-0.464935
  0
VERTEX
  8
EBENE_1
 62
   146
  6
CONTINUOUS
 10
-0.862831
 20
-0.453911
  0
VERTEX
  8
EBENE_1
 62
   146
  6
CONTINUOUS
 10
-0.868621
 20
-0.442804
  0
VERTEX
  8
EBENE_1
 62
   146
  6
CONTINUOUS
 10
-0.874273
 20
-0.431614
  0
VERTEX
  8
EBENE_1
 62
   146
  6
CONTINUOUS
 10
-0.879786
 20
-0.420342
  0
VERTEX
  8
EBENE_1
 62
   146
  6
CONTINUOUS
 10
-0.885157
 20
-0.408989
  0
VERTEX
  8
EBENE_1
 62
   146
  6
CONTINUOUS
 10
-0.890387
 20
-0.397557
  0
VERTEX
  8
EBENE_1
 62
   146
  6
CONTINUOUS
 10
-0.895474
 20
-0.386047
  0
VERTEX
  8
EBENE_1
 62
   146
  6
CONTINUOUS
 10
-0.900416
 20
-0.374460
  0
VERTEX
  8
EBENE_1
 62
   146
  6
CONTINUOUS
 10
-0.905213
 20
-0.362796
  0
VERTEX
  8
EBENE_1
 62
   146
  6
CONTINUOUS
 10
-0.909864
 20
-0.351058
  0
VERTEX
  8
EBENE_1
 62
   146
  6
CONTINUOUS
 10
-0.914367
 20
-0.339246
  0
VERTEX
  8
EBENE_1
 62
   146
  6
CONTINUOUS
 10
-0.918722
 20
-0.327362
  0
VERTEX
  8
EBENE_1
 62
   146
  6
CONTINUOUS
 10
-0.922927
 20
-0.315406
  0
VERTEX
  8
EBENE_1
 62
   146
  6
CONTINUOUS
 10
-0.926980
 20
-0.303380
  0
VERTEX
  8
EBENE_1
 62
   146
  6
CONTINUOUS
 10
-0.930882
 20
-0.291285
  0
VERTEX
  8
EBENE_1
 62
   146
  6
CONTINUOUS
 10
-0.934630
 20
-0.279121
  0
VERTEX
  8
EBENE_1
 62
   146
  6
CONTINUOUS
 10
-0.938224
 20
-0.266891
  0
VERTEX
  8
EBENE_1
 62
   146
  6
CONTINUOUS
 10
-0.941663
 20
-0.254595
  0
VERTEX
  8
EBENE_1
 62
   146
  6
CONTINUOUS
 10
-0.944945
 20
-0.242234
  0
VERTEX
  8
EBENE_1
 62
   146
  6
CONTINUOUS
 10
-0.948069
 20
-0.229810
  0
VERTEX
  8
EBENE_1
 62
   146
  6
CONTINUOUS
 10
-0.951034
 20
-0.217324
  0
VERTEX
  8
EBENE_1
 62
   146
  6
CONTINUOUS
 10
-0.953839
 20
-0.204776
  0
VERTEX
  8
EBENE_1
 62
   146
  6
CONTINUOUS
 10
-0.956483
 20
-0.192168
  0
VERTEX
  8
EBENE_1
 62
   146
  6
CONTINUOUS
 10
-0.958964
 20
-0.179502
  0
VERTEX
  8
EBENE_1
 62
   146
  6
CONTINUOUS
 10
-0.961282
 20
-0.166777
  0
VERTEX
  8
EBENE_1
 62
   146
  6
CONTINUOUS
 10
-0.963436
 20
-0.153996
  0
VERTEX
  8
EBENE_1
 62
   146
  6
CONTINUOUS
 10
-0.965423
 20
-0.141159
  0
VERTEX
  8
EBENE_1
 62
   146
  6
CONTINUOUS
 10
-0.967244
 20
-0.128268
  0
VERTEX
  8
EBENE_1
 62
   146
  6
CONTINUOUS
 10
-0.968897
 20
-0.115324
  0
VERTEX
  8
EBENE_1
 62
   146
  6
CONTINUOUS
 10
-0.970380
 20
-0.102328
  0
VERTEX
  8
EBENE_1
 62
   146
  6
CONTINUOUS
 10
-0.971694
 20
-0.089281
  0
VERTEX
  8
EBENE_1
 62
   146
  6
CONTINUOUS
 10
-0.972836
 20
-0.076183
  0
VERTEX
  8
EBENE_1
 62
   146
  6
CONTINUOUS
 10
-0.973805
 20
-0.063038
  0
VERTEX
  8
EBENE_1
 62
   146
  6
CONTINUOUS
 10
-0.974601
 20
-0.049844
  0
VERTEX
  8
EBENE_1
 62
   146
  6
CONTINUOUS
 10
-0.975222
 20
-0.036605
  0
VERTEX
  8
EBENE_1
 62
   146
  6
CONTINUOUS
 10
-0.975666
 20
-0.023319
  0
VERTEX
  8
EBENE_1
 62
   146
  6
CONTINUOUS
 10
-0.975934
 20
-0.009990
  0
VERTEX
  8
EBENE_1
 62
   146
  6
CONTINUOUS
 10
-0.976024
 20
0.003382
  0
SEQEND
  8
0
  0
POLYLINE
  8
EBENE_1
 62
   146
  6
CONTINUOUS
 66
     1
 40
0.009445
 41
0.009445
  0
VERTEX
  8
EBENE_1
 62
   146
  6
CONTINUOUS
 10
-0.976024
 20
0.003382
  0
VERTEX
  8
EBENE_1
 62
   146
  6
CONTINUOUS
 10
-0.975934
 20
0.016746
  0
VERTEX
  8
EBENE_1
 62
   146
  6
CONTINUOUS
 10
-0.975666
 20
0.030067
  0
VERTEX
  8
EBENE_1
 62
   146
  6
CONTINUOUS
 10
-0.975222
 20
0.043344
  0
VERTEX
  8
EBENE_1
 62
   146
  6
CONTINUOUS
 10
-0.974601
 20
0.056576
  0
VERTEX
  8
EBENE_1
 62
   146
  6
CONTINUOUS
 10
-0.973805
 20
0.069762
  0
VERTEX
  8
EBENE_1
 62
   146
  6
CONTINUOUS
 10
-0.972836
 20
0.082900
  0
VERTEX
  8
EBENE_1
 62
   146
  6
CONTINUOUS
 10
-0.971694
 20
0.095989
  0
VERTEX
  8
EBENE_1
 62
   146
  6
CONTINUOUS
 10
-0.970380
 20
0.109029
  0
VERTEX
  8
EBENE_1
 62
   146
  6
CONTINUOUS
 10
-0.968897
 20
0.122017
  0
VERTEX
  8
EBENE_1
 62
   146
  6
CONTINUOUS
 10
-0.967244
 20
0.134954
  0
VERTEX
  8
EBENE_1
 62
   146
  6
CONTINUOUS
 10
-0.965423
 20
0.147837
  0
VERTEX
  8
EBENE_1
 62
   146
  6
CONTINUOUS
 10
-0.963436
 20
0.160666
  0
VERTEX
  8
EBENE_1
 62
   146
  6
CONTINUOUS
 10
-0.961282
 20
0.173440
  0
VERTEX
  8
EBENE_1
 62
   146
  6
CONTINUOUS
 10
-0.958964
 20
0.186157
  0
VERTEX
  8
EBENE_1
 62
   146
  6
CONTINUOUS
 10
-0.956483
 20
0.198816
  0
VERTEX
  8
EBENE_1
 62
   146
  6
CONTINUOUS
 10
-0.953839
 20
0.211416
  0
VERTEX
  8
EBENE_1
 62
   146
  6
CONTINUOUS
 10
-0.951034
 20
0.223956
  0
VERTEX
  8
EBENE_1
 62
   146
  6
CONTINUOUS
 10
-0.948069
 20
0.236436
  0
VERTEX
  8
EBENE_1
 62
   146
  6
CONTINUOUS
 10
-0.944945
 20
0.248852
  0
VERTEX
  8
EBENE_1
 62
   146
  6
CONTINUOUS
 10
-0.941663
 20
0.261206
  0
VERTEX
  8
EBENE_1
 62
   146
  6
CONTINUOUS
 10
-0.938224
 20
0.273495
  0
VERTEX
  8
EBENE_1
 62
   146
  6
CONTINUOUS
 10
-0.934630
 20
0.285718
  0
VERTEX
  8
EBENE_1
 62
   146
  6
CONTINUOUS
 10
-0.930882
 20
0.297874
  0
VERTEX
  8
EBENE_1
 62
   146
  6
CONTINUOUS
 10
-0.926980
 20
0.309962
  0
VERTEX
  8
EBENE_1
 62
   146
  6
CONTINUOUS
 10
-0.922927
 20
0.321981
  0
VERTEX
  8
EBENE_1
 62
   146
  6
CONTINUOUS
 10
-0.918722
 20
0.333930
  0
VERTEX
  8
EBENE_1
 62
   146
  6
CONTINUOUS
 10
-0.914367
 20
0.345808
  0
VERTEX
  8
EBENE_1
 62
   146
  6
CONTINUOUS
 10
-0.909864
 20
0.357613
  0
VERTEX
  8
EBENE_1
 62
   146
  6
CONTINUOUS
 10
-0.905213
 20
0.369344
  0
VERTEX
  8
EBENE_1
 62
   146
  6
CONTINUOUS
 10
-0.900416
 20
0.381000
  0
VERTEX
  8
EBENE_1
 62
   146
  6
CONTINUOUS
 10
-0.895474
 20
0.392581
  0
VERTEX
  8
EBENE_1
 62
   146
  6
CONTINUOUS
 10
-0.890387
 20
0.404084
  0
VERTEX
  8
EBENE_1
 62
   146
  6
CONTINUOUS
 10
-0.885157
 20
0.415510
  0
VERTEX
  8
EBENE_1
 62
   146
  6
CONTINUOUS
 10
-0.879786
 20
0.426856
  0
VERTEX
  8
EBENE_1
 62
   146
  6
CONTINUOUS
 10
-0.874273
 20
0.438121
  0
VERTEX
  8
EBENE_1
 62
   146
  6
CONTINUOUS
 10
-0.868621
 20
0.449305
  0
VERTEX
  8
EBENE_1
 62
   146
  6
CONTINUOUS
 10
-0.862831
 20
0.460406
  0
VERTEX
  8
EBENE_1
 62
   146
  6
CONTINUOUS
 10
-0.856903
 20
0.471423
  0
VERTEX
  8
EBENE_1
 62
   146
  6
CONTINUOUS
 10
-0.850839
 20
0.482355
  0
VERTEX
  8
EBENE_1
 62
   146
  6
CONTINUOUS
 10
-0.844640
 20
0.493201
  0
VERTEX
  8
EBENE_1
 62
   146
  6
CONTINUOUS
 10
-0.838308
 20
0.503959
  0
VERTEX
  8
EBENE_1
 62
   146
  6
CONTINUOUS
 10
-0.831842
 20
0.514629
  0
VERTEX
  8
EBENE_1
 62
   146
  6
CONTINUOUS
 10
-0.825244
 20
0.525210
  0
VERTEX
  8
EBENE_1
 62
   146
  6
CONTINUOUS
 10
-0.818517
 20
0.535700
  0
VERTEX
  8
EBENE_1
 62
   146
  6
CONTINUOUS
 10
-0.811659
 20
0.546098
  0
VERTEX
  8
EBENE_1
 62
   146
  6
CONTINUOUS
 10
-0.804674
 20
0.556403
  0
VERTEX
  8
EBENE_1
 62
   146
  6
CONTINUOUS
 10
-0.797561
 20
0.566614
  0
VERTEX
  8
EBENE_1
 62
   146
  6
CONTINUOUS
 10
-0.790323
 20
0.576729
  0
VERTEX
  8
EBENE_1
 62
   146
  6
CONTINUOUS
 10
-0.782959
 20
0.586748
  0
VERTEX
  8
EBENE_1
 62
   146
  6
CONTINUOUS
 10
-0.775472
 20
0.596670
  0
VERTEX
  8
EBENE_1
 62
   146
  6
CONTINUOUS
 10
-0.767862
 20
0.606493
  0
VERTEX
  8
EBENE_1
 62
   146
  6
CONTINUOUS
 10
-0.760131
 20
0.616216
  0
VERTEX
  8
EBENE_1
 62
   146
  6
CONTINUOUS
 10
-0.752280
 20
0.625838
  0
VERTEX
  8
EBENE_1
 62
   146
  6
CONTINUOUS
 10
-0.744309
 20
0.635358
  0
VERTEX
  8
EBENE_1
 62
   146
  6
CONTINUOUS
 10
-0.736221
 20
0.644775
  0
VERTEX
  8
EBENE_1
 62
   146
  6
CONTINUOUS
 10
-0.728015
 20
0.654087
  0
VERTEX
  8
EBENE_1
 62
   146
  6
CONTINUOUS
 10
-0.719694
 20
0.663294
  0
VERTEX
  8
EBENE_1
 62
   146
  6
CONTINUOUS
 10
-0.711258
 20
0.672395
  0
VERTEX
  8
EBENE_1
 62
   146
  6
CONTINUOUS
 10
-0.702709
 20
0.681387
  0
VERTEX
  8
EBENE_1
 62
   146
  6
CONTINUOUS
 10
-0.694047
 20
0.690271
  0
VERTEX
  8
EBENE_1
 62
   146
  6
CONTINUOUS
 10
-0.685274
 20
0.699044
  0
VERTEX
  8
EBENE_1
 62
   146
  6
CONTINUOUS
 10
-0.676392
 20
0.707707
  0
VERTEX
  8
EBENE_1
 62
   146
  6
CONTINUOUS
 10
-0.667400
 20
0.716257
  0
VERTEX
  8
EBENE_1
 62
   146
  6
CONTINUOUS
 10
-0.658300
 20
0.724693
  0
VERTEX
  8
EBENE_1
 62
   146
  6
CONTINUOUS
 10
-0.649094
 20
0.733015
  0
VERTEX
  8
EBENE_1
 62
   146
  6
CONTINUOUS
 10
-0.639782
 20
0.741221
  0
VERTEX
  8
EBENE_1
 62
   146
  6
CONTINUOUS
 10
-0.630366
 20
0.749311
  0
VERTEX
  8
EBENE_1
 62
   146
  6
CONTINUOUS
 10
-0.620846
 20
0.757282
  0
VERTEX
  8
EBENE_1
 62
   146
  6
CONTINUOUS
 10
-0.611225
 20
0.765134
  0
VERTEX
  8
EBENE_1
 62
   146
  6
CONTINUOUS
 10
-0.601502
 20
0.772866
  0
VERTEX
  8
EBENE_1
 62
   146
  6
CONTINUOUS
 10
-0.591680
 20
0.780477
  0
VERTEX
  8
EBENE_1
 62
   146
  6
CONTINUOUS
 10
-0.581759
 20
0.787964
  0
VERTEX
  8
EBENE_1
 62
   146
  6
CONTINUOUS
 10
-0.571740
 20
0.795329
  0
VERTEX
  8
EBENE_1
 62
   146
  6
CONTINUOUS
 10
-0.561625
 20
0.802568
  0
VERTEX
  8
EBENE_1
 62
   146
  6
CONTINUOUS
 10
-0.551415
 20
0.809681
  0
VERTEX
  8
EBENE_1
 62
   146
  6
CONTINUOUS
 10
-0.541111
 20
0.816668
  0
VERTEX
  8
EBENE_1
 62
   146
  6
CONTINUOUS
 10
-0.530713
 20
0.823526
  0
VERTEX
  8
EBENE_1
 62
   146
  6
CONTINUOUS
 10
-0.520224
 20
0.830254
  0
VERTEX
  8
EBENE_1
 62
   146
  6
CONTINUOUS
 10
-0.509643
 20
0.836853
  0
VERTEX
  8
EBENE_1
 62
   146
  6
CONTINUOUS
 10
-0.498974
 20
0.843319
  0
VERTEX
  8
EBENE_1
 62
   146
  6
CONTINUOUS
 10
-0.488215
 20
0.849653
  0
VERTEX
  8
EBENE_1
 62
   146
  6
CONTINUOUS
 10
-0.477370
 20
0.855852
  0
VERTEX
  8
EBENE_1
 62
   146
  6
CONTINUOUS
 10
-0.466438
 20
0.861917
  0
VERTEX
  8
EBENE_1
 62
   146
  6
CONTINUOUS
 10
-0.455421
 20
0.867846
  0
VERTEX
  8
EBENE_1
 62
   146
  6
CONTINUOUS
 10
-0.444321
 20
0.873637
  0
VERTEX
  8
EBENE_1
 62
   146
  6
CONTINUOUS
 10
-0.433137
 20
0.879289
  0
VERTEX
  8
EBENE_1
 62
   146
  6
CONTINUOUS
 10
-0.421872
 20
0.884802
  0
VERTEX
  8
EBENE_1
 62
   146
  6
CONTINUOUS
 10
-0.410526
 20
0.890175
  0
VERTEX
  8
EBENE_1
 62
   146
  6
CONTINUOUS
 10
-0.399101
 20
0.895405
  0
VERTEX
  8
EBENE_1
 62
   146
  6
CONTINUOUS
 10
-0.387598
 20
0.900492
  0
VERTEX
  8
EBENE_1
 62
   146
  6
CONTINUOUS
 10
-0.376017
 20
0.905436
  0
VERTEX
  8
EBENE_1
 62
   146
  6
CONTINUOUS
 10
-0.364361
 20
0.910234
  0
VERTEX
  8
EBENE_1
 62
   146
  6
CONTINUOUS
 10
-0.352629
 20
0.914885
  0
VERTEX
  8
EBENE_1
 62
   146
  6
CONTINUOUS
 10
-0.340824
 20
0.919389
  0
VERTEX
  8
EBENE_1
 62
   146
  6
CONTINUOUS
 10
-0.328947
 20
0.923744
  0
VERTEX
  8
EBENE_1
 62
   146
  6
CONTINUOUS
 10
-0.316998
 20
0.927949
  0
VERTEX
  8
EBENE_1
 62
   146
  6
CONTINUOUS
 10
-0.304978
 20
0.932004
  0
VERTEX
  8
EBENE_1
 62
   146
  6
CONTINUOUS
 10
-0.292890
 20
0.935906
  0
VERTEX
  8
EBENE_1
 62
   146
  6
CONTINUOUS
 10
-0.280734
 20
0.939655
  0
VERTEX
  8
EBENE_1
 62
   146
  6
CONTINUOUS
 10
-0.268510
 20
0.943249
  0
VERTEX
  8
EBENE_1
 62
   146
  6
CONTINUOUS
 10
-0.256221
 20
0.946688
  0
VERTEX
  8
EBENE_1
 62
   146
  6
CONTINUOUS
 10
-0.243867
 20
0.949971
  0
VERTEX
  8
EBENE_1
 62
   146
  6
CONTINUOUS
 10
-0.231450
 20
0.953095
  0
VERTEX
  8
EBENE_1
 62
   146
  6
CONTINUOUS
 10
-0.218971
 20
0.956061
  0
VERTEX
  8
EBENE_1
 62
   146
  6
CONTINUOUS
 10
-0.206430
 20
0.958866
  0
VERTEX
  8
EBENE_1
 62
   146
  6
CONTINUOUS
 10
-0.193829
 20
0.961511
  0
VERTEX
  8
EBENE_1
 62
   146
  6
CONTINUOUS
 10
-0.181169
 20
0.963993
  0
VERTEX
  8
EBENE_1
 62
   146
  6
CONTINUOUS
 10
-0.168452
 20
0.966311
  0
VERTEX
  8
EBENE_1
 62
   146
  6
CONTINUOUS
 10
-0.155678
 20
0.968465
  0
VERTEX
  8
EBENE_1
 62
   146
  6
CONTINUOUS
 10
-0.142848
 20
0.970453
  0
VERTEX
  8
EBENE_1
 62
   146
  6
CONTINUOUS
 10
-0.129964
 20
0.972274
  0
VERTEX
  8
EBENE_1
 62
   146
  6
CONTINUOUS
 10
-0.117027
 20
0.973927
  0
VERTEX
  8
EBENE_1
 62
   146
  6
CONTINUOUS
 10
-0.104037
 20
0.975411
  0
VERTEX
  8
EBENE_1
 62
   146
  6
CONTINUOUS
 10
-0.090997
 20
0.976724
  0
VERTEX
  8
EBENE_1
 62
   146
  6
CONTINUOUS
 10
-0.077906
 20
0.977867
  0
VERTEX
  8
EBENE_1
 62
   146
  6
CONTINUOUS
 10
-0.064768
 20
0.978836
  0
VERTEX
  8
EBENE_1
 62
   146
  6
CONTINUOUS
 10
-0.051581
 20
0.979632
  0
VERTEX
  8
EBENE_1
 62
   146
  6
CONTINUOUS
 10
-0.038348
 20
0.980253
  0
VERTEX
  8
EBENE_1
 62
   146
  6
CONTINUOUS
 10
-0.025070
 20
0.980698
  0
VERTEX
  8
EBENE_1
 62
   146
  6
CONTINUOUS
 10
-0.011747
 20
0.980966
  0
VERTEX
  8
EBENE_1
 62
   146
  6
CONTINUOUS
 10
0.001618
 20
0.981055
  0
SEQEND
  8
0
  0
POLYLINE
  8
EBENE_1
 62
   146
  6
CONTINUOUS
 66
     1
 40
0.009445
 41
0.009445
  0
VERTEX
  8
EBENE_1
 62
   146
  6
CONTINUOUS
 10
0.001618
 20
0.981055
  0
VERTEX
  8
EBENE_1
 62
   146
  6
CONTINUOUS
 10
0.014984
 20
0.980966
  0
VERTEX
  8
EBENE_1
 62
   146
  6
CONTINUOUS
 10
0.028306
 20
0.980698
  0
VERTEX
  8
EBENE_1
 62
   146
  6
CONTINUOUS
 10
0.041585
 20
0.980253
  0
VERTEX
  8
EBENE_1
 62
   146
  6
CONTINUOUS
 10
0.054818
 20
0.979632
  0
VERTEX
  8
EBENE_1
 62
   146
  6
CONTINUOUS
 10
0.068005
 20
0.978836
  0
VERTEX
  8
EBENE_1
 62
   146
  6
CONTINUOUS
 10
0.081145
 20
0.977867
  0
VERTEX
  8
EBENE_1
 62
   146
  6
CONTINUOUS
 10
0.094235
 20
0.976724
  0
VERTEX
  8
EBENE_1
 62
   146
  6
CONTINUOUS
 10
0.107276
 20
0.975411
  0
VERTEX
  8
EBENE_1
 62
   146
  6
CONTINUOUS
 10
0.120266
 20
0.973927
  0
VERTEX
  8
EBENE_1
 62
   146
  6
CONTINUOUS
 10
0.133204
 20
0.972274
  0
VERTEX
  8
EBENE_1
 62
   146
  6
CONTINUOUS
 10
0.146089
 20
0.970453
  0
VERTEX
  8
EBENE_1
 62
   146
  6
CONTINUOUS
 10
0.158919
 20
0.968465
  0
VERTEX
  8
EBENE_1
 62
   146
  6
CONTINUOUS
 10
0.171694
 20
0.966311
  0
VERTEX
  8
EBENE_1
 62
   146
  6
CONTINUOUS
 10
0.184412
 20
0.963993
  0
VERTEX
  8
EBENE_1
 62
   146
  6
CONTINUOUS
 10
0.197072
 20
0.961511
  0
VERTEX
  8
EBENE_1
 62
   146
  6
CONTINUOUS
 10
0.209674
 20
0.958866
  0
VERTEX
  8
EBENE_1
 62
   146
  6
CONTINUOUS
 10
0.222215
 20
0.956061
  0
VERTEX
  8
EBENE_1
 62
   146
  6
CONTINUOUS
 10
0.234696
 20
0.953095
  0
VERTEX
  8
EBENE_1
 62
   146
  6
CONTINUOUS
 10
0.247114
 20
0.949971
  0
VERTEX
  8
EBENE_1
 62
   146
  6
CONTINUOUS
 10
0.259468
 20
0.946688
  0
VERTEX
  8
EBENE_1
 62
   146
  6
CONTINUOUS
 10
0.271758
 20
0.943249
  0
VERTEX
  8
EBENE_1
 62
   146
  6
CONTINUOUS
 10
0.283983
 20
0.939655
  0
VERTEX
  8
EBENE_1
 62
   146
  6
CONTINUOUS
 10
0.296140
 20
0.935906
  0
VERTEX
  8
EBENE_1
 62
   146
  6
CONTINUOUS
 10
0.308229
 20
0.932004
  0
VERTEX
  8
EBENE_1
 62
   146
  6
CONTINUOUS
 10
0.320250
 20
0.927949
  0
VERTEX
  8
EBENE_1
 62
   146
  6
CONTINUOUS
 10
0.332200
 20
0.923744
  0
VERTEX
  8
EBENE_1
 62
   146
  6
CONTINUOUS
 10
0.344078
 20
0.919389
  0
VERTEX
  8
EBENE_1
 62
   146
  6
CONTINUOUS
 10
0.355884
 20
0.914885
  0
VERTEX
  8
EBENE_1
 62
   146
  6
CONTINUOUS
 10
0.367617
 20
0.910234
  0
VERTEX
  8
EBENE_1
 62
   146
  6
CONTINUOUS
 10
0.379274
 20
0.905436
  0
VERTEX
  8
EBENE_1
 62
   146
  6
CONTINUOUS
 10
0.390856
 20
0.900492
  0
VERTEX
  8
EBENE_1
 62
   146
  6
CONTINUOUS
 10
0.402360
 20
0.895405
  0
VERTEX
  8
EBENE_1
 62
   146
  6
CONTINUOUS
 10
0.413787
 20
0.890175
  0
VERTEX
  8
EBENE_1
 62
   146
  6
CONTINUOUS
 10
0.425133
 20
0.884802
  0
VERTEX
  8
EBENE_1
 62
   146
  6
CONTINUOUS
 10
0.436400
 20
0.879289
  0
VERTEX
  8
EBENE_1
 62
   146
  6
CONTINUOUS
 10
0.447585
 20
0.873637
  0
VERTEX
  8
EBENE_1
 62
   146
  6
CONTINUOUS
 10
0.458687
 20
0.867846
  0
VERTEX
  8
EBENE_1
 62
   146
  6
CONTINUOUS
 10
0.469705
 20
0.861917
  0
VERTEX
  8
EBENE_1
 62
   146
  6
CONTINUOUS
 10
0.480638
 20
0.855852
  0
VERTEX
  8
EBENE_1
 62
   146
  6
CONTINUOUS
 10
0.491484
 20
0.849653
  0
VERTEX
  8
EBENE_1
 62
   146
  6
CONTINUOUS
 10
0.502244
 20
0.843319
  0
VERTEX
  8
EBENE_1
 62
   146
  6
CONTINUOUS
 10
0.512915
 20
0.836853
  0
VERTEX
  8
EBENE_1
 62
   146
  6
CONTINUOUS
 10
0.523496
 20
0.830254
  0
VERTEX
  8
EBENE_1
 62
   146
  6
CONTINUOUS
 10
0.533987
 20
0.823526
  0
VERTEX
  8
EBENE_1
 62
   146
  6
CONTINUOUS
 10
0.544386
 20
0.816668
  0
VERTEX
  8
EBENE_1
 62
   146
  6
CONTINUOUS
 10
0.554692
 20
0.809681
  0
VERTEX
  8
EBENE_1
 62
   146
  6
CONTINUOUS
 10
0.564903
 20
0.802568
  0
VERTEX
  8
EBENE_1
 62
   146
  6
CONTINUOUS
 10
0.575020
 20
0.795329
  0
VERTEX
  8
EBENE_1
 62
   146
  6
CONTINUOUS
 10
0.585040
 20
0.787964
  0
VERTEX
  8
EBENE_1
 62
   146
  6
CONTINUOUS
 10
0.594962
 20
0.780477
  0
VERTEX
  8
EBENE_1
 62
   146
  6
CONTINUOUS
 10
0.604786
 20
0.772866
  0
VERTEX
  8
EBENE_1
 62
   146
  6
CONTINUOUS
 10
0.614510
 20
0.765134
  0
VERTEX
  8
EBENE_1
 62
   146
  6
CONTINUOUS
 10
0.624132
 20
0.757282
  0
VERTEX
  8
EBENE_1
 62
   146
  6
CONTINUOUS
 10
0.633653
 20
0.749311
  0
VERTEX
  8
EBENE_1
 62
   146
  6
CONTINUOUS
 10
0.643071
 20
0.741221
  0
VERTEX
  8
EBENE_1
 62
   146
  6
CONTINUOUS
 10
0.652384
 20
0.733015
  0
VERTEX
  8
EBENE_1
 62
   146
  6
CONTINUOUS
 10
0.661592
 20
0.724693
  0
VERTEX
  8
EBENE_1
 62
   146
  6
CONTINUOUS
 10
0.670693
 20
0.716257
  0
VERTEX
  8
EBENE_1
 62
   146
  6
CONTINUOUS
 10
0.679686
 20
0.707707
  0
VERTEX
  8
EBENE_1
 62
   146
  6
CONTINUOUS
 10
0.688570
 20
0.699044
  0
VERTEX
  8
EBENE_1
 62
   146
  6
CONTINUOUS
 10
0.697344
 20
0.690271
  0
VERTEX
  8
EBENE_1
 62
   146
  6
CONTINUOUS
 10
0.706007
 20
0.681387
  0
VERTEX
  8
EBENE_1
 62
   146
  6
CONTINUOUS
 10
0.714558
 20
0.672395
  0
VERTEX
  8
EBENE_1
 62
   146
  6
CONTINUOUS
 10
0.722995
 20
0.663294
  0
VERTEX
  8
EBENE_1
 62
   146
  6
CONTINUOUS
 10
0.731318
 20
0.654087
  0
VERTEX
  8
EBENE_1
 62
   146
  6
CONTINUOUS
 10
0.739524
 20
0.644775
  0
VERTEX
  8
EBENE_1
 62
   146
  6
CONTINUOUS
 10
0.747614
 20
0.635358
  0
VERTEX
  8
EBENE_1
 62
   146
  6
CONTINUOUS
 10
0.755586
 20
0.625838
  0
VERTEX
  8
EBENE_1
 62
   146
  6
CONTINUOUS
 10
0.763439
 20
0.616216
  0
VERTEX
  8
EBENE_1
 62
   146
  6
CONTINUOUS
 10
0.771171
 20
0.606493
  0
VERTEX
  8
EBENE_1
 62
   146
  6
CONTINUOUS
 10
0.778782
 20
0.596670
  0
VERTEX
  8
EBENE_1
 62
   146
  6
CONTINUOUS
 10
0.786271
 20
0.586748
  0
VERTEX
  8
EBENE_1
 62
   146
  6
CONTINUOUS
 10
0.793636
 20
0.576729
  0
VERTEX
  8
EBENE_1
 62
   146
  6
CONTINUOUS
 10
0.800876
 20
0.566614
  0
VERTEX
  8
EBENE_1
 62
   146
  6
CONTINUOUS
 10
0.807989
 20
0.556403
  0
VERTEX
  8
EBENE_1
 62
   146
  6
CONTINUOUS
 10
0.814976
 20
0.546098
  0
VERTEX
  8
EBENE_1
 62
   146
  6
CONTINUOUS
 10
0.821835
 20
0.535700
  0
VERTEX
  8
EBENE_1
 62
   146
  6
CONTINUOUS
 10
0.828564
 20
0.525210
  0
VERTEX
  8
EBENE_1
 62
   146
  6
CONTINUOUS
 10
0.835162
 20
0.514629
  0
VERTEX
  8
EBENE_1
 62
   146
  6
CONTINUOUS
 10
0.841629
 20
0.503959
  0
VERTEX
  8
EBENE_1
 62
   146
  6
CONTINUOUS
 10
0.847963
 20
0.493201
  0
VERTEX
  8
EBENE_1
 62
   146
  6
CONTINUOUS
 10
0.854164
 20
0.482355
  0
VERTEX
  8
EBENE_1
 62
   146
  6
CONTINUOUS
 10
0.860229
 20
0.471423
  0
VERTEX
  8
EBENE_1
 62
   146
  6
CONTINUOUS
 10
0.866158
 20
0.460406
  0
VERTEX
  8
EBENE_1
 62
   146
  6
CONTINUOUS
 10
0.871949
 20
0.449305
  0
VERTEX
  8
EBENE_1
 62
   146
  6
CONTINUOUS
 10
0.877602
 20
0.438121
  0
VERTEX
  8
EBENE_1
 62
   146
  6
CONTINUOUS
 10
0.883115
 20
0.426856
  0
VERTEX
  8
EBENE_1
 62
   146
  6
CONTINUOUS
 10
0.888488
 20
0.415510
  0
VERTEX
  8
EBENE_1
 62
   146
  6
CONTINUOUS
 10
0.893719
 20
0.404084
  0
VERTEX
  8
EBENE_1
 62
   146
  6
CONTINUOUS
 10
0.898807
 20
0.392581
  0
VERTEX
  8
EBENE_1
 62
   146
  6
CONTINUOUS
 10
0.903750
 20
0.381000
  0
VERTEX
  8
EBENE_1
 62
   146
  6
CONTINUOUS
 10
0.908548
 20
0.369344
  0
VERTEX
  8
EBENE_1
 62
   146
  6
CONTINUOUS
 10
0.913200
 20
0.357613
  0
VERTEX
  8
EBENE_1
 62
   146
  6
CONTINUOUS
 10
0.917704
 20
0.345808
  0
VERTEX
  8
EBENE_1
 62
   146
  6
CONTINUOUS
 10
0.922060
 20
0.333930
  0
VERTEX
  8
EBENE_1
 62
   146
  6
CONTINUOUS
 10
0.926265
 20
0.321981
  0
VERTEX
  8
EBENE_1
 62
   146
  6
CONTINUOUS
 10
0.930320
 20
0.309962
  0
VERTEX
  8
EBENE_1
 62
   146
  6
CONTINUOUS
 10
0.934222
 20
0.297874
  0
VERTEX
  8
EBENE_1
 62
   146
  6
CONTINUOUS
 10
0.937971
 20
0.285718
  0
VERTEX
  8
EBENE_1
 62
   146
  6
CONTINUOUS
 10
0.941566
 20
0.273495
  0
VERTEX
  8
EBENE_1
 62
   146
  6
CONTINUOUS
 10
0.945005
 20
0.261206
  0
VERTEX
  8
EBENE_1
 62
   146
  6
CONTINUOUS
 10
0.948288
 20
0.248852
  0
VERTEX
  8
EBENE_1
 62
   146
  6
CONTINUOUS
 10
0.951413
 20
0.236436
  0
VERTEX
  8
EBENE_1
 62
   146
  6
CONTINUOUS
 10
0.954378
 20
0.223956
  0
VERTEX
  8
EBENE_1
 62
   146
  6
CONTINUOUS
 10
0.957184
 20
0.211416
  0
VERTEX
  8
EBENE_1
 62
   146
  6
CONTINUOUS
 10
0.959828
 20
0.198816
  0
VERTEX
  8
EBENE_1
 62
   146
  6
CONTINUOUS
 10
0.962311
 20
0.186157
  0
VERTEX
  8
EBENE_1
 62
   146
  6
CONTINUOUS
 10
0.964629
 20
0.173440
  0
VERTEX
  8
EBENE_1
 62
   146
  6
CONTINUOUS
 10
0.966783
 20
0.160666
  0
VERTEX
  8
EBENE_1
 62
   146
  6
CONTINUOUS
 10
0.968771
 20
0.147837
  0
VERTEX
  8
EBENE_1
 62
   146
  6
CONTINUOUS
 10
0.970592
 20
0.134954
  0
VERTEX
  8
EBENE_1
 62
   146
  6
CONTINUOUS
 10
0.972246
 20
0.122017
  0
VERTEX
  8
EBENE_1
 62
   146
  6
CONTINUOUS
 10
0.973729
 20
0.109029
  0
VERTEX
  8
EBENE_1
 62
   146
  6
CONTINUOUS
 10
0.975043
 20
0.095989
  0
VERTEX
  8
EBENE_1
 62
   146
  6
CONTINUOUS
 10
0.976185
 20
0.082900
  0
VERTEX
  8
EBENE_1
 62
   146
  6
CONTINUOUS
 10
0.977155
 20
0.069762
  0
VERTEX
  8
EBENE_1
 62
   146
  6
CONTINUOUS
 10
0.977951
 20
0.056576
  0
VERTEX
  8
EBENE_1
 62
   146
  6
CONTINUOUS
 10
0.978572
 20
0.043344
  0
VERTEX
  8
EBENE_1
 62
   146
  6
CONTINUOUS
 10
0.979017
 20
0.030067
  0
VERTEX
  8
EBENE_1
 62
   146
  6
CONTINUOUS
 10
0.979284
 20
0.016746
  0
VERTEX
  8
EBENE_1
 62
   146
  6
CONTINUOUS
 10
0.979374
 20
0.003382
  0
SEQEND
  8
0
  0
ENDSEC
  0
EOF
