  0
SECTION
  2
HEADER
  9
$ACADVER
  1
AC1024
  9
$ACADMAINTVER
 70
     6
  9
$DWGCODEPAGE
  3
ANSI_1252
  9
$INSBASE
 10
0.0
 20
0.0
 30
0.0
  9
$EXTMIN
 10
-996.918742
 20
-194.690962
 30
0.000000
  9
$EXTMAX
 10
964.082051
 20
184.277563
 30
0.000000
  9
$LIMMIN
 10
0.0
 20
0.0
  9
$LIMMAX
 10
420.0
 20
297.0
  9
$ORTHOMODE
 70
     0
  9
$REGENMODE
 70
     1
  9
$FILLMODE
 70
     1
  9
$QTEXTMODE
 70
     0
  9
$MIRRTEXT
 70
     0
  9
$LTSCALE
 40
50.000000
  9
$ATTMODE
 70
     1
  9
$TEXTSIZE
 40
2.5
  9
$TRACEWID
 40
1.0
  9
$TEXTSTYLE
  7
Standard
  9
$CLAYER
  8
0
  9
$CELTYPE
  6
ByLayer
  9
$CECOLOR
 62
   256
  9
$CELTSCALE
 40
1.0
  9
$DISPSILH
 70
     0
  9
$DIMSCALE
 40
1.0
  9
$DIMASZ
 40
2.5
  9
$DIMEXO
 40
0.625
  9
$DIMDLI
 40
3.75
  9
$DIMRND
 40
0.0
  9
$DIMDLE
 40
0.0
  9
$DIMEXE
 40
1.25
  9
$DIMTP
 40
0.0
  9
$DIMTM
 40
0.0
  9
$DIMTXT
 40
2.5
  9
$DIMCEN
 40
2.5
  9
$DIMTSZ
 40
0.0
  9
$DIMTOL
 70
     0
  9
$DIMLIM
 70
     0
  9
$DIMTIH
 70
     0
  9
$DIMTOH
 70
     0
  9
$DIMSE1
 70
     0
  9
$DIMSE2
 70
     0
  9
$DIMTAD
 70
     1
  9
$DIMZIN
 70
     8
  9
$DIMBLK
  1

  9
$DIMASO
 70
     1
  9
$DIMSHO
 70
     1
  9
$DIMPOST
  1

  9
$DIMAPOST
  1

  9
$DIMALT
 70
     0
  9
$DIMALTD
 70
     3
  9
$DIMALTF
 40
0.03937007874016
  9
$DIMLFAC
 40
1.0
  9
$DIMTOFL
 70
     1
  9
$DIMTVP
 40
0.0
  9
$DIMTIX
 70
     0
  9
$DIMSOXD
 70
     0
  9
$DIMSAH
 70
     0
  9
$DIMBLK1
  1

  9
$DIMBLK2
  1

  9
$DIMSTYLE
  2
ISO-25
  9
$DIMCLRD
 70
     0
  9
$DIMCLRE
 70
     0
  9
$DIMCLRT
 70
     0
  9
$DIMTFAC
 40
1.0
  9
$DIMGAP
 40
0.625
  9
$DIMJUST
 70
     0
  9
$DIMSD1
 70
     0
  9
$DIMSD2
 70
     0
  9
$DIMTOLJ
 70
     0
  9
$DIMTZIN
 70
     8
  9
$DIMALTZ
 70
     0
  9
$DIMALTTZ
 70
     0
  9
$DIMUPT
 70
     0
  9
$DIMDEC
 70
     2
  9
$DIMTDEC
 70
     2
  9
$DIMALTU
 70
     2
  9
$DIMALTTD
 70
     3
  9
$DIMTXSTY
  7
Standard
  9
$DIMAUNIT
 70
     0
  9
$DIMADEC
 70
     0
  9
$DIMALTRND
 40
0.0
  9
$DIMAZIN
 70
     0
  9
$DIMDSEP
 70
    44
  9
$DIMATFIT
 70
     3
  9
$DIMFRAC
 70
     0
  9
$DIMLDRBLK
  1

  9
$DIMLUNIT
 70
     2
  9
$DIMLWD
 70
    -2
  9
$DIMLWE
 70
    -2
  9
$DIMTMOVE
 70
     0
  9
$DIMFXL
 40
1.0
  9
$DIMFXLON
 70
     0
  9
$DIMJOGANG
 40
0.7853981633974483
  9
$DIMTFILL
 70
     0
  9
$DIMTFILLCLR
 70
     0
  9
$DIMARCSYM
 70
     0
  9
$DIMLTYPE
  6

  9
$DIMLTEX1
  6

  9
$DIMLTEX2
  6

  9
$DIMTXTDIRECTION
 70
     0
  9
$LUNITS
 70
     2
  9
$LUPREC
 70
     4
  9
$SKETCHINC
 40
1.0
  9
$FILLETRAD
 40
10.0
  9
$AUNITS
 70
     0
  9
$AUPREC
 70
     0
  9
$MENU
  1
.
  9
$ELEVATION
 40
0.0
  9
$PELEVATION
 40
0.0
  9
$THICKNESS
 40
0.0
  9
$LIMCHECK
 70
     0
  9
$CHAMFERA
 40
10.0
  9
$CHAMFERB
 40
10.0
  9
$CHAMFERC
 40
20.0
  9
$CHAMFERD
 40
0.0
  9
$SKPOLY
 70
     0
  9
$TDCREATE
 40
2452006.439837951
  9
$TDUCREATE
 40
2452006.356504618
  9
$TDUPDATE
 40
2452006.439963946
  9
$TDUUPDATE
 40
2452006.356630613
  9
$TDINDWG
 40
0.0001273843
  9
$TDUSRTIMER
 40
0.0001272685
  9
$USRTIMER
 70
     1
  9
$ANGBASE
 50
0.0
  9
$ANGDIR
 70
     0
  9
$PDMODE
 70
     0
  9
$PDSIZE
 40
0.0
  9
$PLINEWID
 40
0.0
  9
$SPLFRAME
 70
     0
  9
$SPLINETYPE
 70
     6
  9
$SPLINESEGS
 70
     8
  9
$HANDSEED
  5
351
  9
$SURFTAB1
 70
     6
  9
$SURFTAB2
 70
     6
  9
$SURFTYPE
 70
     6
  9
$SURFU
 70
     6
  9
$SURFV
 70
     6
  9
$UCSBASE
  2

  9
$UCSNAME
  2

  9
$UCSORG
 10
0.0
 20
0.0
 30
0.0
  9
$UCSXDIR
 10
1.0
 20
0.0
 30
0.0
  9
$UCSYDIR
 10
0.0
 20
1.0
 30
0.0
  9
$UCSORTHOREF
  2

  9
$UCSORTHOVIEW
 70
     0
  9
$UCSORGTOP
 10
0.0
 20
0.0
 30
0.0
  9
$UCSORGBOTTOM
 10
0.0
 20
0.0
 30
0.0
  9
$UCSORGLEFT
 10
0.0
 20
0.0
 30
0.0
  9
$UCSORGRIGHT
 10
0.0
 20
0.0
 30
0.0
  9
$UCSORGFRONT
 10
0.0
 20
0.0
 30
0.0
  9
$UCSORGBACK
 10
0.0
 20
0.0
 30
0.0
  9
$PUCSBASE
  2

  9
$PUCSNAME
  2

  9
$PUCSORG
 10
0.0
 20
0.0
 30
0.0
  9
$PUCSXDIR
 10
1.0
 20
0.0
 30
0.0
  9
$PUCSYDIR
 10
0.0
 20
1.0
 30
0.0
  9
$PUCSORTHOREF
  2

  9
$PUCSORTHOVIEW
 70
     0
  9
$PUCSORGTOP
 10
0.0
 20
0.0
 30
0.0
  9
$PUCSORGBOTTOM
 10
0.0
 20
0.0
 30
0.0
  9
$PUCSORGLEFT
 10
0.0
 20
0.0
 30
0.0
  9
$PUCSORGRIGHT
 10
0.0
 20
0.0
 30
0.0
  9
$PUCSORGFRONT
 10
0.0
 20
0.0
 30
0.0
  9
$PUCSORGBACK
 10
0.0
 20
0.0
 30
0.0
  9
$USERI1
 70
     0
  9
$USERI2
 70
     0
  9
$USERI3
 70
     0
  9
$USERI4
 70
     0
  9
$USERI5
 70
     0
  9
$USERR1
 40
0.0
  9
$USERR2
 40
0.0
  9
$USERR3
 40
0.0
  9
$USERR4
 40
0.0
  9
$USERR5
 40
0.0
  9
$WORLDVIEW
 70
     1
  9
$SHADEDGE
 70
     3
  9
$SHADEDIF
 70
    70
  9
$TILEMODE
 70
     1
  9
$MAXACTVP
 70
    64
  9
$PINSBASE
 10
0.0
 20
0.0
 30
0.0
  9
$PLIMCHECK
 70
     0
  9
$PEXTMIN
 10
1.000000000000000E+20
 20
1.000000000000000E+20
 30
1.000000000000000E+20
  9
$PEXTMAX
 10
-1.000000000000000E+20
 20
-1.000000000000000E+20
 30
-1.000000000000000E+20
  9
$PLIMMIN
 10
0.0
 20
0.0
  9
$PLIMMAX
 10
420.0
 20
297.0
  9
$UNITMODE
 70
     0
  9
$VISRETAIN
 70
     1
  9
$PLINEGEN
 70
     0
  9
$PSLTSCALE
 70
     1
  9
$TREEDEPTH
 70
  3020
  9
$CMLSTYLE
  2
Standard
  9
$CMLJUST
 70
     0
  9
$CMLSCALE
 40
20.0
  9
$PROXYGRAPHICS
 70
     1
  9
$MEASUREMENT
 70
     1
  9
$CELWEIGHT
370
    -1
  9
$ENDCAPS
280
     0
  9
$JOINSTYLE
280
     0
  9
$LWDISPLAY
290
     0
  9
$INSUNITS
 70
     4
  9
$HYPERLINKBASE
  1

  9
$STYLESHEET
  1

  9
$XEDIT
290
     1
  9
$CEPSNTYPE
380
     0
  9
$PSTYLEMODE
290
     1
  9
$FINGERPRINTGUID
  2

  9
$VERSIONGUID
  2

  9
$EXTNAMES
290
     1
  9
$PSVPSCALE
 40
0.0
  9
$OLESTARTUP
290
     0
  9
$SORTENTS
280
   127
  9
$INDEXCTL
280
     0
  9
$HIDETEXT
280
     1
  9
$XCLIPFRAME
280
     2
  9
$HALOGAP
280
     0
  9
$OBSCOLOR
 70
   257
  9
$OBSLTYPE
280
     0
  9
$INTERSECTIONDISPLAY
280
     0
  9
$INTERSECTIONCOLOR
 70
   257
  9
$DIMASSOC
280
     2
  9
$PROJECTNAME
  1

  9
$CAMERADISPLAY
290
     0
  9
$LENSLENGTH
 40
50.0
  9
$CAMERAHEIGHT
 40
0.0
  9
$STEPSPERSEC
 40
2.0
  9
$STEPSIZE
 40
6.0
  9
$3DDWFPREC
 40
2.0
  9
$PSOLWIDTH
 40
5.0
  9
$PSOLHEIGHT
 40
80.0
  9
$LOFTANG1
 40
1.570796326794896
  9
$LOFTANG2
 40
1.570796326794896
  9
$LOFTMAG1
 40
0.0
  9
$LOFTMAG2
 40
0.0
  9
$LOFTPARAM
 70
     7
  9
$LOFTNORMALS
280
     1
  9
$LATITUDE
 40
37.795
  9
$LONGITUDE
 40
-122.394
  9
$NORTHDIRECTION
 40
0.0
  9
$TIMEZONE
 70
 -8000
  9
$LIGHTGLYPHDISPLAY
280
     1
  9
$TILEMODELIGHTSYNCH
280
     1
  9
$CMATERIAL
347
EC
  9
$SOLIDHIST
280
     1
  9
$SHOWHIST
280
     1
  9
$DWFFRAME
280
     2
  9
$DGNFRAME
280
     0
  9
$REALWORLDSCALE
290
     1
  9
$INTERFERECOLOR
 62
     1
  9
$INTERFEREOBJVS
345
F9
  9
$INTERFEREVPVS
346
F6
  9
$CSHADOW
280
     0
  9
$SHADOWPLANELOCATION
 40
0.0
  0
ENDSEC
  0
SECTION
  2
CLASSES
  0
CLASS
  1
ACDBDICTIONARYWDFLT
  2
AcDbDictionaryWithDefault
  3
ObjectDBX Classes
 90
        0
 91
        1
280
     0
281
     0
  0
CLASS
  1
ACDBPLACEHOLDER
  2
AcDbPlaceHolder
  3
ObjectDBX Classes
 90
        0
 91
        1
280
     0
281
     0
  0
CLASS
  1
LAYOUT
  2
AcDbLayout
  3
ObjectDBX Classes
 90
        0
 91
        2
280
     0
281
     0
  0
CLASS
  1
DICTIONARYVAR
  2
AcDbDictionaryVar
  3
ObjectDBX Classes
 90
        0
 91
        7
280
     0
281
     0
  0
CLASS
  1
TABLESTYLE
  2
AcDbTableStyle
  3
ObjectDBX Classes
 90
     4095
 91
        1
280
     0
281
     0
  0
CLASS
  1
MATERIAL
  2
AcDbMaterial
  3
ObjectDBX Classes
 90
     1153
 91
        3
280
     0
281
     0
  0
CLASS
  1
VISUALSTYLE
  2
AcDbVisualStyle
  3
ObjectDBX Classes
 90
     4095
 91
       16
280
     0
281
     0
  0
CLASS
  1
SCALE
  2
AcDbScale
  3
ObjectDBX Classes
 90
     1153
 91
       17
280
     0
281
     0
  0
CLASS
  1
MLEADERSTYLE
  2
AcDbMLeaderStyle
  3
ACDB_MLEADERSTYLE_CLASS
 90
     4095
 91
        1
280
     0
281
     0
  0
CLASS
  1
CELLSTYLEMAP
  2
AcDbCellStyleMap
  3
ObjectDBX Classes
 90
     1152
 91
        2
280
     0
281
     0
  0
CLASS
  1
EXACXREFPANELOBJECT
  2
ExAcXREFPanelObject
  3
EXAC_ESW
 90
    33793
 91
        0
280
     0
281
     0
  0
CLASS
  1
NPOCOLLECTION
  2
AcDbImpNonPersistentObjectsCollection
  3
ObjectDBX Classes
 90
     1153
 91
        0
280
     0
281
     0
  0
CLASS
  1
LAYER_INDEX
  2
AcDbLayerIndex
  3
ObjectDBX Classes
 90
        0
 91
        0
280
     0
281
     0
  0
CLASS
  1
SPATIAL_INDEX
  2
AcDbSpatialIndex
  3
ObjectDBX Classes
 90
        0
 91
        0
280
     0
281
     0
  0
CLASS
  1
IDBUFFER
  2
AcDbIdBuffer
  3
ObjectDBX Classes
 90
        0
 91
        0
280
     0
281
     0
  0
CLASS
  1
RASTERVARIABLES
  2
AcDbRasterVariables
  3
ISM
 90
        0
 91
        2
280
     0
281
     0
  0
CLASS
  1
IMAGEDEF
  2
AcDbRasterImageDef
  3
ISM
 90
        0
 91
        5
280
     0
281
     0
  0
CLASS
  1
IMAGEDEF_REACTOR
  2
AcDbRasterImageDefReactor
  3
ISM
 90
        1
 91
        5
280
     0
281
     0
  0
CLASS
  1
IMAGE
  2
AcDbRasterImage
  3
ISM
 90
     2175
 91
        5
280
     0
281
     1
  0
CLASS
  1
LWPOLYLINE
  2
AcDbPolyline
  3
ObjectDBX Classes
 90
        0
 91
        0
280
     0
281
     1
  0
CLASS
  1
OLE2FRAME
  2
AcDbOle2Frame
  3
ObjectDBX Classes
 90
        0
 91
        0
280
     0
281
     1
  0
CLASS
  1
HATCH
  2
AcDbHatch
  3
ObjectDBX Classes
 90
        0
 91
        0
280
     0
281
     1
  0
CLASS
  1
XRECORD
  2
AcDbXrecord
  3
ObjectDBX Classes
 90
        0
 91
        9
280
     0
281
     0
  0
CLASS
  1
SORTENTSTABLE
  2
AcDbSortentsTable
  3
ObjectDBX Classes
 90
        0
 91
        0
280
     0
281
     0
  0
CLASS
  1
OBJECT_PTR
  2
CAseDLPNTableRecord
  3
"ASE-LPNTableRecord"
 90
    32769
 91
        0
280
     0
281
     0
  0
CLASS
  1
PLOTSETTINGS
  2
AcDbPlotSettings
  3
ObjectDBX Classes
 90
        0
 91
        0
280
     0
281
     0
  0
CLASS
  1
VBA_PROJECT
  2
AcDbVbaProject
  3
acad
 90
        0
 91
        0
280
     0
281
     0
  0
CLASS
  1
WIPEOUT
  2
AcDbWipeout
  3
WipeOut|AutoCAD Express Tool|expresstools@autodesk.com
 90
    32895
 91
        0
280
     0
281
     1
  0
CLASS
  1
WIPEOUTVARIABLES
  2
AcDbWipeoutVariables
  3
WipeOut|AutoCAD Express Tool|expresstools@autodesk.com
 90
    32768
 91
        0
280
     0
281
     0
  0
CLASS
  1
RTEXT
  2
RText
  3
RText|AutoCAD Express Tool|expresstools@autodesk.com
 90
    32768
 91
        0
280
     0
281
     1
  0
CLASS
  1
ARCALIGNEDTEXT
  2
AcDbArcAlignedText
  3
ATEXT|AutoCAD Express Tool|expresstools@autodesk.com
 90
    32768
 91
        0
280
     0
281
     1
  0
ENDSEC
  0
SECTION
  2
TABLES
  0
TABLE
  2
VPORT
  5
32F
100
AcDbSymbolTable
 70
     1
  0
VPORT
  5
330
100
AcDbSymbolTableRecord
100
AcDbViewportTableRecord
  2
*ACTIVE
 70
     0
 10
0.000000
 20
0.000000
 11
1.000000
 21
1.000000
 12
50.000000
 22
50.000000
 13
0.000000
 23
0.000000
 14
1.000000
 24
1.000000
 15
10.000000
 25
10.000000
 16
0.000000
 26
0.000000
 36
1.000000
 17
0.000000
 27
0.000000
 37
0.000000
 40
100.000000
 41
1.387409
 42
50.000000
 43
0.000000
 44
0.000000
 50
0.000000
 51
0.000000
 71
     0
 72
   100
 73
     1
 74
     1
 75
     0
 76
     0
 77
     0
 78
     0
  0
ENDTAB
  0
TABLE
  2
LTYPE
  5
331
330
0
100
AcDbSymbolTable
 70
     9
  0
LTYPE
  5
332
330
331
100
AcDbSymbolTableRecord
100
AcDbLinetypeTableRecord
  2
ByBlock
 70
     0
  3

 72
    65
 73
     0
 40
0.000000
  0
LTYPE
  5
333
330
331
100
AcDbSymbolTableRecord
100
AcDbLinetypeTableRecord
  2
ByLayer
 70
     0
  3

 72
    65
 73
     0
 40
0.000000
  0
LTYPE
  5
334
330
331
100
AcDbSymbolTableRecord
100
AcDbLinetypeTableRecord
  2
CONTINUOUS
 70
     0
  3
Solid line
 72
    65
 73
     0
 40
0.000000
  0
LTYPE
  5
335
330
331
100
AcDbSymbolTableRecord
100
AcDbLinetypeTableRecord
  2
HIDDEN
 70
     0
  3
_ _ _ _ _ _ _ _ _ _ _ _ _ _ _ _ _ _ _ _ _ _ _
 72
    65
 73
     2
 40
0.375000
 49
0.250000
 74
     0
 49
-0.125000
 74
     0
  0
LTYPE
  5
336
330
331
100
AcDbSymbolTableRecord
100
AcDbLinetypeTableRecord
  2
DOT
 70
     0
  3
...............................................
 72
    65
 73
     2
 40
0.250000
 49
0.000000
 74
     0
 49
-0.250000
 74
     0
  0
LTYPE
  5
337
330
331
100
AcDbSymbolTableRecord
100
AcDbLinetypeTableRecord
  2
DASHED
 70
     0
  3
__ __ __ __ __ __ __ __ __ __ __ __ __ __ __ 
 72
    65
 73
     2
 40
0.750000
 49
0.500000
 74
     0
 49
-0.250000
 74
     0
  0
LTYPE
  5
338
330
331
100
AcDbSymbolTableRecord
100
AcDbLinetypeTableRecord
  2
DIVIDE
 70
     0
  3
__ . . __ . . __ . . __ . . __ . . __ . . __
 72
    65
 73
     6
 40
1.250000
 49
0.500000
 74
     0
 49
-0.250000
 74
     0
 49
0.000000
 74
     0
 49
-0.250000
 74
     0
 49
0.000000
 74
     0
 49
-0.250000
 74
     0
  0
LTYPE
  5
339
330
331
100
AcDbSymbolTableRecord
100
AcDbLinetypeTableRecord
  2
DASHDOT
 70
     0
  3
__ . __ . __ . __ . __ . __ . __ . __ . __ . __
 72
    65
 73
     4
 40
1.000000
 49
0.500000
 74
     0
 49
-0.250000
 74
     0
 49
0.000000
 74
     0
 49
-0.250000
 74
     0
  0
LTYPE
  5
33A
330
331
100
AcDbSymbolTableRecord
100
AcDbLinetypeTableRecord
  2
BORDER
 70
     0
  3
__ __ . __ __ . __ __ . __ __ . __ __ . __ __
 72
    65
 73
     6
 40
1.750000
 49
0.500000
 74
     0
 49
-0.250000
 74
     0
 49
0.500000
 74
     0
 49
-0.250000
 74
     0
 49
0.000000
 74
     0
 49
-0.250000
 74
     0
  0
LTYPE
  5
33B
330
331
100
AcDbSymbolTableRecord
100
AcDbLinetypeTableRecord
  2
CENTER
 70
     0
  3
____ _ ____ _ ____ _ ____ _ ____ _ ____ _ ____
 72
    65
 73
     4
 40
2.000000
 49
1.250000
 74
     0
 49
-0.250000
 74
     0
 49
0.250000
 74
     0
 49
-0.250000
 74
     0
  0
LTYPE
  5
33C
330
331
100
AcDbSymbolTableRecord
100
AcDbLinetypeTableRecord
  2
PHANTOM
 70
     0
  3
_____ _ _ _____ _ _ _____ _ _ _____ _ _ ____
 72
    65
 73
     6
 40
2.500000
 49
1.250000
 74
     0
 49
-0.250000
 74
     0
 49
0.250000
 74
     0
 49
-0.250000
 74
     0
 49
0.250000
 74
     0
 49
-0.250000
 74
     0
  0
ENDTAB
  0
TABLE
  2
LAYER
  5
33D
100
AcDbSymbolTable
 70
     2
  0
LAYER
  5
33E
100
AcDbSymbolTableRecord
100
AcDbLayerTableRecord
  2
0
 70
     0
 62
     7
  6
CONTINUOUS
370
    -3
390
     0
  0
LAYER
  5
33F
100
AcDbSymbolTableRecord
100
AcDbLayerTableRecord
  2
outsidecontur
 70
     0
 62
     7
  6
CONTINUOUS
370
    -3
390
     0
  0
ENDTAB
  0
TABLE
  2
STYLE
  5
340
100
AcDbSymbolTable
 70
     1
  0
STYLE
  5
201
100
AcDbSymbolTableRecord
100
AcDbTextStyleTableRecord
  2
STANDARD
 70
     0
 40
0.000000
 41
1.000000
 50
0.000000
 71
     0
 42
3.500000
  3
txt
  4

  0
ENDTAB
  0
TABLE
  2
DIMSTYLE
  5
341
100
AcDbSymbolTable
 70
     0
100
AcDbDimStyleTable
  0
ENDTAB
  0
TABLE
  2
VIEW
  5
342
100
AcDbSymbolTable
 70
     0
  0
ENDTAB
  0
TABLE
  2
UCS
  5
343
100
AcDbSymbolTable
 70
     0
  0
ENDTAB
  0
TABLE
  2
APPID
  5
344
100
AcDbSymbolTable
 70
     1
  0
APPID
  5
345
100
AcDbSymbolTableRecord
100
AcDbRegAppTableRecord
  2
ACAD
 70
     0
  0
ENDTAB
  0
TABLE
  2
BLOCK_RECORD
  5
346
100
AcDbSymbolTable
 70
    11
  0
BLOCK_RECORD
  5
202
102
{ACAD_XDICTIONARY
360
203
102
}
100
AcDbSymbolTableRecord
100
AcDbBlockTableRecord
  2
*Model_Space
  0
BLOCK_RECORD
  5
347
100
AcDbSymbolTableRecord
100
AcDbBlockTableRecord
  2
*Paper_Space
  0
BLOCK_RECORD
  5
348
100
AcDbSymbolTableRecord
100
AcDbBlockTableRecord
  2
*Paper_Space0
  0
BLOCK_RECORD
  5
349
100
AcDbSymbolTableRecord
100
AcDbBlockTableRecord
  2
B
  0
BLOCK_RECORD
  5
34A
100
AcDbSymbolTableRecord
100
AcDbBlockTableRecord
  2
B-2
  0
BLOCK_RECORD
  5
34B
100
AcDbSymbolTableRecord
100
AcDbBlockTableRecord
  2
B-3
  0
BLOCK_RECORD
  5
34C
100
AcDbSymbolTableRecord
100
AcDbBlockTableRecord
  2
B-4
  0
BLOCK_RECORD
  5
34D
100
AcDbSymbolTableRecord
100
AcDbBlockTableRecord
  2
B-5
  0
BLOCK_RECORD
  5
34E
100
AcDbSymbolTableRecord
100
AcDbBlockTableRecord
  2
B-6
  0
BLOCK_RECORD
  5
34F
100
AcDbSymbolTableRecord
100
AcDbBlockTableRecord
  2
B-7
  0
BLOCK_RECORD
  5
350
100
AcDbSymbolTableRecord
100
AcDbBlockTableRecord
  2
B-8
  0
ENDTAB
  0
ENDSEC
  0
SECTION
  2
BLOCKS
  0
BLOCK
  5
204
100
AcDbEntity
  8
0
100
AcDbBlockBegin
  2
*Model_Space
 70
     0
 10
0.000000
 20
0.000000
 30
0.000000
  3
*Model_Space
  1

  0
ENDBLK
  5
205
100
AcDbEntity
  8
0
100
AcDbBlockEnd
  0
BLOCK
  5
206
100
AcDbEntity
 67
     1
  8
0
100
AcDbBlockBegin
  2
*Paper_Space
 70
     0
 10
0.000000
 20
0.000000
 30
0.000000
  3
*Paper_Space
  1

  0
ENDBLK
  5
207
100
AcDbEntity
 67
     1
  8
0
100
AcDbBlockEnd
  0
BLOCK
  5
208
100
AcDbEntity
 67
     1
  8
0
100
AcDbBlockBegin
  2
*Paper_Space0
 70
     0
 10
0.000000
 20
0.000000
 30
0.000000
  3
*Paper_Space0
  1

  0
ENDBLK
  5
209
100
AcDbEntity
 67
     1
  8
0
100
AcDbBlockEnd
  0
BLOCK
  5
20A
100
AcDbEntity
  8
SCHRAFF
100
AcDbBlockBegin
  2
B
 70
    66
 10
0.000000
 20
0.000000
 30
0.000000
  0
HATCH
  5
20B
100
AcDbEntity
  8
SCHRAFF
 62
   154
440
     0
100
AcDbHatch
 10
0.000000
 20
0.000000
 30
0.000000
210
0.000000
220
0.000000
230
1.000000
  2
SOLID
 70
     1
 71
     1
 91
     1
 92
    18
 72
     1
 73
     0
 93
    52
 10
-305.868163
 20
33.404687
 42
0.000000
 10
-280.317590
 20
130.456146
 42
0.000000
 10
-207.071958
 20
130.456146
 42
0.000000
 10
-201.636773
 20
129.733007
 42
0.000000
 10
-194.158012
 20
127.361511
 42
0.000000
 10
-190.606022
 20
126.108152
 42
0.000000
 10
-190.199239
 20
125.930037
 42
0.000000
 10
-189.436553
 20
125.677217
 42
0.000000
 10
-188.629742
 20
125.504416
 42
0.000000
 10
-188.401395
 20
125.473962
 42
0.068642
 10
-187.628723
 20
125.474428
 42
0.440492
 10
-187.083746
 20
125.814774
 42
0.000000
 10
-180.983989
 20
183.417016
 42
0.000000
 10
-476.868122
 20
183.417016
 42
0.306957
 10
-489.641173
 20
174.759768
 42
0.000000
 10
-497.706902
 20
144.321914
 42
0.000000
 10
-499.634684
 20
131.873137
 42
0.000000
 10
-501.245115
 20
124.794052
 42
0.000000
 10
-499.128445
 20
125.711276
 42
0.000000
 10
-492.761921
 20
127.762460
 42
0.000000
 10
-486.490155
 20
129.142047
 42
0.000000
 10
-462.592758
 20
130.361992
 42
0.000000
 10
-429.029304
 20
130.279418
 42
0.000000
 10
-402.705266
 20
130.059271
 42
-0.492785
 10
-384.149563
 20
106.230129
 42
0.000000
 10
-417.121138
 20
19.951810
 42
0.000000
 10
-441.128262
 20
-28.977940
 42
0.000000
 10
-450.118694
 20
-53.632486
 42
0.000000
 10
-454.253563
 20
-73.166547
 42
0.000000
 10
-460.464281
 20
-99.162098
 42
0.000000
 10
-468.569008
 20
-115.765596
 42
0.000000
 10
-473.834227
 20
-125.378810
 42
0.000000
 10
-480.748686
 20
-137.302722
 42
0.000000
 10
-337.882219
 20
-137.108694
 42
0.493296
 10
-336.493446
 20
-136.182662
 42
0.091335
 10
-336.578966
 20
-134.991843
 42
0.000000
 10
-336.771155
 20
-134.343698
 42
0.000000
 10
-337.119175
 20
-133.415953
 42
0.000000
 10
-337.672102
 20
-132.190127
 42
0.000000
 10
-339.573562
 20
-128.357282
 42
0.000000
 10
-340.042714
 20
-127.354224
 42
0.000000
 10
-340.347267
 20
-126.638150
 42
0.000000
 10
-340.632060
 20
-125.872635
 42
0.000000
 10
-340.775616
 20
-125.421002
 42
0.000000
 10
-340.856097
 20
-125.119649
 42
0.000000
 10
-340.916114
 20
-124.849642
 42
0.000000
 10
-341.238229
 20
-104.028562
 42
0.000000
 10
-333.776105
 20
-74.386767
 42
0.000000
 10
-329.997847
 20
-62.112488
 42
0.000000
 10
-324.447916
 20
-39.217488
 42
0.000000
 10
-312.250618
 20
9.358804
 42
0.000000
 10
-305.868163
 20
33.404687
 42
0.000000
 97
     0
 75
     0
 76
     1
 98
     0
  0
HATCH
  5
20C
100
AcDbEntity
  8
SCHRAFF
 62
   154
440
     0
100
AcDbHatch
 10
0.000000
 20
0.000000
 30
0.000000
210
0.000000
220
0.000000
230
1.000000
  2
SOLID
 70
     1
 71
     1
 91
     2
 92
    18
 72
     1
 73
     0
 93
    15
 10
166.462599
 20
136.467516
 42
0.000000
 10
109.890690
 20
183.417016
 42
0.000000
 10
-68.738695
 20
183.417016
 42
0.154433
 10
-100.734018
 20
173.331803
 42
0.000000
 10
-141.055215
 20
139.436632
 42
0.000000
 10
-159.376307
 20
121.760157
 42
0.000000
 10
-180.529570
 20
43.620938
 42
0.000000
 10
-203.941049
 20
-53.632486
 42
0.463026
 10
-141.596271
 20
-137.232167
 42
0.000000
 10
53.243285
 20
-137.232167
 42
0.178811
 10
107.155852
 20
-112.277811
 42
0.131906
 10
140.838183
 20
-53.579569
 42
0.000000
 10
147.435140
 20
-25.075067
 42
0.000000
 10
177.871104
 20
91.068429
 42
0.239454
 10
166.462599
 20
136.467516
 42
0.000000
 97
     0
 92
     2
 72
     1
 73
     0
 93
    17
 10
57.961697
 20
103.556787
 42
0.000000
 10
13.855568
 20
-67.143902
 42
0.000000
 10
11.679434
 20
-73.256633
 42
-0.167547
 10
3.618371
 20
-81.803454
 42
0.000000
 10
-1.657866
 20
-83.054211
 42
0.000000
 10
-20.642223
 20
-83.484133
 42
0.000000
 10
-53.282492
 20
-83.308070
 42
0.000000
 10
-67.953763
 20
-83.212961
 42
-0.173506
 10
-81.705876
 20
-78.292683
 42
-0.279956
 10
-85.478034
 20
-67.549597
 42
0.000000
 10
-64.979475
 20
13.873265
 42
0.000000
 10
-54.603986
 20
54.821013
 42
0.000000
 10
-38.840718
 20
113.064167
 42
-0.162839
 10
-30.061241
 20
124.210361
 42
0.000000
 10
-14.075669
 20
130.588438
 42
0.000000
 10
37.447629
 20
130.667814
 42
-0.498117
 10
57.961697
 20
103.556787
 42
0.000000
 97
     0
 75
     0
 76
     1
 98
     0
  0
HATCH
  5
20D
100
AcDbEntity
  8
SCHRAFF
 62
   154
440
     0
100
AcDbHatch
 10
0.000000
 20
0.000000
 30
0.000000
210
0.000000
220
0.000000
230
1.000000
  2
SOLID
 70
     1
 71
     1
 91
     2
 92
    18
 72
     1
 73
     0
 93
    45
 10
357.823408
 20
-0.221823
 42
0.000000
 10
384.440545
 20
-137.108694
 42
0.000000
 10
518.672758
 20
-137.108694
 42
0.000000
 10
519.131908
 20
-137.098014
 42
0.073348
 10
520.392848
 20
-136.894048
 42
0.092401
 10
520.972468
 20
-136.594543
 42
0.239387
 10
521.389282
 20
-135.623738
 42
0.112452
 10
520.612946
 20
-133.696856
 42
0.000000
 10
520.183170
 20
-133.059372
 42
0.000000
 10
518.383270
 20
-130.828654
 42
0.000000
 10
508.914421
 20
-120.680886
 42
0.000000
 10
505.626140
 20
-116.722274
 42
0.000000
 10
503.801164
 20
-114.112671
 42
-0.100729
 10
501.387420
 20
-108.485935
 42
0.000000
 10
499.465389
 20
-92.410375
 42
0.000000
 10
491.785686
 20
-61.076022
 42
0.000000
 10
481.753969
 20
-15.654953
 42
0.000000
 10
479.417332
 20
-0.195365
 42
0.140061
 10
522.733223
 20
12.181157
 42
0.197620
 10
545.289894
 20
43.513889
 42
0.018198
 10
562.276178
 20
116.098062
 42
0.250378
 10
547.769045
 20
164.172284
 42
0.215811
 10
496.941603
 20
183.417016
 42
0.000000
 10
304.712392
 20
184.277563
 42
0.000000
 10
239.386852
 20
183.417016
 42
0.000000
 10
242.390406
 20
165.476817
 42
0.000000
 10
240.171784
 20
143.235547
 42
0.000000
 10
226.603345
 20
87.033972
 42
0.000000
 10
217.310623
 20
52.223325
 42
0.000000
 10
187.849671
 20
-57.357319
 42
0.000000
 10
177.451249
 20
-93.415208
 42
0.000000
 10
174.440333
 20
-109.177458
 42
0.000000
 10
171.037224
 20
-118.746128
 42
0.000000
 10
163.213669
 20
-131.217647
 42
0.000000
 10
158.962177
 20
-137.426195
 42
0.000000
 10
191.063775
 20
-137.578106
 42
0.000000
 10
261.337203
 20
-137.866521
 42
0.000000
 10
302.075588
 20
-137.232167
 42
0.000000
 10
298.880029
 20
-118.073349
 42
0.000000
 10
302.102047
 20
-93.884511
 42
0.000000
 10
305.781857
 20
-78.230102
 42
0.000000
 10
311.745679
 20
-54.750838
 42
0.000000
 10
315.055364
 20
-42.052561
 42
0.000000
 10
326.082164
 20
-0.221823
 42
0.000000
 10
357.823408
 20
-0.221823
 42
0.000000
 97
     0
 92
     2
 72
     1
 73
     0
 93
    17
 10
340.960597
 20
55.367246
 42
0.000000
 10
360.054732
 20
130.588438
 42
-0.263998
 10
367.017010
 20
137.900825
 42
0.000000
 10
381.844175
 20
138.877692
 42
0.000000
 10
388.575435
 20
137.520608
 42
0.000000
 10
399.034467
 20
134.886212
 42
0.000000
 10
414.003042
 20
131.307815
 42
-0.055262
 10
429.626498
 20
128.559710
 42
-0.380589
 10
438.916073
 20
111.121884
 42
0.000000
 10
433.638556
 20
89.822417
 42
0.000000
 10
428.511397
 20
70.272137
 42
-0.239125
 10
418.368184
 20
59.476580
 42
0.000000
 10
395.985221
 20
55.552455
 42
0.000000
 10
388.245985
 20
55.299382
 42
0.000000
 10
377.268390
 20
54.462265
 42
0.000000
 10
355.864181
 20
53.496201
 42
0.000000
 10
340.960597
 20
55.367246
 42
0.000000
 97
     0
 75
     0
 76
     1
 98
     0
  0
HATCH
  5
20E
100
AcDbEntity
  8
SCHRAFF
 62
   154
440
     0
100
AcDbHatch
 10
0.000000
 20
0.000000
 30
0.000000
210
0.000000
220
0.000000
230
1.000000
  2
SOLID
 70
     1
 71
     1
 91
     1
 92
    18
 72
     1
 73
     0
 93
    54
 10
613.522678
 20
157.741085
 42
-0.094435
 10
613.402600
 20
152.063829
 42
0.000000
 10
596.098583
 20
79.902834
 42
0.000000
 10
577.122384
 20
8.103363
 42
0.000000
 10
566.938284
 20
-30.213273
 42
0.000000
 10
564.334445
 20
-39.848785
 42
0.000000
 10
562.480692
 20
-46.731816
 42
0.000000
 10
560.626939
 20
-53.579569
 42
0.000000
 10
558.607703
 20
-61.855514
 42
0.000000
 10
556.104707
 20
-73.637751
 42
0.000000
 10
550.139129
 20
-98.460572
 42
0.000000
 10
543.570099
 20
-115.227609
 42
0.000000
 10
542.520703
 20
-117.461753
 42
0.000000
 10
540.982890
 20
-119.886695
 42
0.000000
 10
539.612696
 20
-121.704803
 42
0.000000
 10
535.622605
 20
-126.584843
 42
0.000000
 10
534.349891
 20
-128.254867
 42
0.000000
 10
532.901752
 20
-130.471358
 42
0.079726
 10
531.173531
 20
-134.779613
 42
0.000000
 10
530.922991
 20
-137.108694
 42
0.000000
 10
603.771747
 20
-137.108694
 42
0.000000
 10
601.001475
 20
-124.059493
 42
0.000000
 10
601.531604
 20
-104.697171
 42
0.000000
 10
606.759564
 20
-80.286424
 42
0.000000
 10
609.957610
 20
-66.946226
 42
0.000000
 10
614.895101
 20
-46.797670
 42
0.000000
 10
623.686591
 20
-13.551124
 42
0.000000
 10
654.757058
 20
104.765053
 42
0.000000
 10
737.095556
 20
-136.711818
 42
0.000000
 10
872.527215
 20
-136.711818
 42
0.343767
 10
886.626991
 20
-125.718597
 42
0.000000
 10
891.226313
 20
-87.551046
 42
0.000000
 10
891.656244
 20
-65.465995
 42
0.000000
 10
893.411702
 20
-53.579569
 42
0.000000
 10
925.028158
 20
69.495625
 42
0.000000
 10
945.834584
 20
145.396315
 42
0.000000
 10
949.415295
 20
154.767319
 42
0.000000
 10
955.939735
 20
167.330031
 42
0.000000
 10
964.082051
 20
183.549308
 42
0.000000
 10
890.836419
 20
183.549308
 42
0.000000
 10
893.076562
 20
175.647070
 42
0.000000
 10
893.818589
 20
159.547189
 42
0.000000
 10
891.365586
 20
142.441795
 42
0.000000
 10
838.826862
 20
-60.129000
 42
0.000000
 10
838.140133
 20
-62.804726
 42
0.000000
 10
753.773158
 20
183.725697
 42
0.000000
 10
610.994883
 20
184.102166
 42
0.101877
 10
609.303439
 20
183.763407
 42
0.145518
 10
608.154235
 20
182.791155
 42
0.000000
 10
607.553350
 20
181.176917
 42
0.069501
 10
607.741386
 20
177.922780
 42
0.000000
 10
608.491241
 20
174.854697
 42
0.000000
 10
612.085877
 20
163.790894
 42
-0.037868
 10
613.522678
 20
157.741085
 42
0.000000
 97
     0
 75
     0
 76
     1
 98
     0
  0
ENDBLK
  5
20F
100
AcDbEntity
  8
0
100
AcDbBlockEnd
  0
BLOCK
  5
210
100
AcDbEntity
  8
outsidecontur
100
AcDbBlockBegin
  2
B-2
 70
    66
 10
0.000000
 20
0.000000
 30
0.000000
  0
LWPOLYLINE
  5
211
100
AcDbEntity
  8
outsidecontur
  6
CONTINUOUS
 62
     3
100
AcDbPolyline
 90
    55
 10
-337.882219
 20
-137.108694
 42
0.000000
 10
-480.748686
 20
-137.302722
 42
0.000000
 10
-473.834227
 20
-125.378810
 42
0.000000
 10
-468.569008
 20
-115.765596
 42
0.000000
 10
-460.464281
 20
-99.162098
 42
0.000000
 10
-454.253563
 20
-73.166547
 42
0.000000
 10
-450.118694
 20
-53.632486
 42
0.000000
 10
-441.128262
 20
-28.977940
 42
0.000000
 10
-417.121138
 20
19.951810
 42
0.000000
 10
-384.149563
 20
106.230129
 42
0.492785
 10
-402.705266
 20
130.059271
 42
0.000000
 10
-429.029304
 20
130.279418
 42
0.000000
 10
-462.592758
 20
130.361992
 42
0.000000
 10
-486.490155
 20
129.142047
 42
0.000000
 10
-492.761921
 20
127.762460
 42
0.000000
 10
-499.128445
 20
125.711276
 42
0.000000
 10
-501.245115
 20
124.794052
 42
0.000000
 10
-499.634684
 20
131.873137
 42
0.000000
 10
-497.706902
 20
144.321914
 42
0.000000
 10
-489.641173
 20
174.759768
 42
-0.306957
 10
-476.868122
 20
183.417016
 42
0.000000
 10
-180.983989
 20
183.417016
 42
0.000000
 10
-187.083746
 20
125.814774
 42
-0.171352
 10
-187.272237
 20
125.594481
 42
-0.095884
 10
-187.628723
 20
125.474428
 42
-0.068642
 10
-188.401395
 20
125.473962
 42
0.000000
 10
-188.629742
 20
125.504416
 42
0.000000
 10
-189.436553
 20
125.677217
 42
0.000000
 10
-190.199239
 20
125.930037
 42
0.000000
 10
-190.606022
 20
126.108152
 42
0.000000
 10
-194.158012
 20
127.361511
 42
0.000000
 10
-201.636773
 20
129.733007
 42
0.000000
 10
-207.071958
 20
130.456146
 42
0.000000
 10
-280.317590
 20
130.456146
 42
0.000000
 10
-305.868163
 20
33.404687
 42
0.000000
 10
-312.250618
 20
9.358804
 42
0.000000
 10
-324.447916
 20
-39.217488
 42
0.000000
 10
-329.997847
 20
-62.112488
 42
0.000000
 10
-333.776105
 20
-74.386767
 42
0.000000
 10
-341.238229
 20
-104.028562
 42
0.000000
 10
-340.916114
 20
-124.849642
 42
0.000000
 10
-340.856097
 20
-125.119649
 42
0.000000
 10
-340.775616
 20
-125.421002
 42
0.000000
 10
-340.632060
 20
-125.872635
 42
0.000000
 10
-340.347267
 20
-126.638150
 42
0.000000
 10
-340.042714
 20
-127.354224
 42
0.000000
 10
-339.573562
 20
-128.357282
 42
0.000000
 10
-337.672102
 20
-132.190127
 42
0.000000
 10
-337.119175
 20
-133.415953
 42
0.000000
 10
-336.771155
 20
-134.343698
 42
0.000000
 10
-336.578966
 20
-134.991843
 42
-0.091335
 10
-336.493446
 20
-136.182662
 42
-0.225801
 10
-337.006668
 20
-136.926728
 42
-0.070232
 10
-337.382259
 20
-137.060822
 42
-0.053811
 10
-337.882219
 20
-137.108694
 42
0.000000
  0
ENDBLK
  5
249
100
AcDbEntity
  8
0
100
AcDbBlockEnd
  0
BLOCK
  5
24A
100
AcDbEntity
  8
outsidecontur
100
AcDbBlockBegin
  2
B-3
 70
    66
 10
0.000000
 20
0.000000
 30
0.000000
  0
LWPOLYLINE
  5
24B
100
AcDbEntity
  8
outsidecontur
  6
CONTINUOUS
 62
     3
100
AcDbPolyline
 90
    15
 10
53.243285
 20
-137.232167
 42
0.000000
 10
-141.596271
 20
-137.232167
 42
-0.463026
 10
-203.941049
 20
-53.632486
 42
0.000000
 10
-180.529570
 20
43.620938
 42
0.000000
 10
-159.376307
 20
121.760157
 42
0.000000
 10
-141.055215
 20
139.436632
 42
0.000000
 10
-100.734018
 20
173.331803
 42
-0.154433
 10
-68.738695
 20
183.417016
 42
0.000000
 10
109.890690
 20
183.417016
 42
0.000000
 10
166.462599
 20
136.467516
 42
-0.239454
 10
177.871104
 20
91.068429
 42
0.000000
 10
147.435140
 20
-25.075067
 42
0.000000
 10
140.838183
 20
-53.579569
 42
-0.131906
 10
107.155852
 20
-112.277811
 42
-0.178811
 10
53.243285
 20
-137.232167
 42
0.000000
  0
LWPOLYLINE
  5
25B
100
AcDbEntity
  8
outsidecontur
  6
CONTINUOUS
 62
     3
100
AcDbPolyline
 90
    17
 10
-85.478034
 20
-67.549597
 42
0.000000
 10
-64.979475
 20
13.873265
 42
0.000000
 10
-54.603986
 20
54.821013
 42
0.000000
 10
-38.840718
 20
113.064167
 42
-0.162839
 10
-30.061241
 20
124.210361
 42
0.000000
 10
-14.075669
 20
130.588438
 42
0.000000
 10
37.447629
 20
130.667814
 42
-0.498117
 10
57.961697
 20
103.556787
 42
0.000000
 10
13.855568
 20
-67.143902
 42
0.000000
 10
11.679434
 20
-73.256633
 42
-0.167547
 10
3.618371
 20
-81.803454
 42
0.000000
 10
-1.657866
 20
-83.054211
 42
0.000000
 10
-20.642223
 20
-83.484133
 42
0.000000
 10
-53.282492
 20
-83.308070
 42
0.000000
 10
-67.953763
 20
-83.212961
 42
-0.173506
 10
-81.705876
 20
-78.292683
 42
-0.279956
 10
-85.478034
 20
-67.549597
 42
0.000000
  0
ENDBLK
  5
26D
100
AcDbEntity
  8
0
100
AcDbBlockEnd
  0
BLOCK
  5
26E
100
AcDbEntity
  8
outsidecontur
100
AcDbBlockBegin
  2
B-4
 70
    66
 10
0.000000
 20
0.000000
 30
0.000000
  0
LWPOLYLINE
  5
26F
100
AcDbEntity
  8
outsidecontur
  6
CONTINUOUS
 62
     3
100
AcDbPolyline
 90
    17
 10
340.960597
 20
55.367246
 42
0.000000
 10
360.054732
 20
130.588438
 42
-0.263998
 10
367.017010
 20
137.900825
 42
0.000000
 10
381.844175
 20
138.877692
 42
0.000000
 10
388.575435
 20
137.520608
 42
0.000000
 10
399.034467
 20
134.886212
 42
0.000000
 10
414.003042
 20
131.307815
 42
-0.055262
 10
429.626498
 20
128.559710
 42
-0.380589
 10
438.916073
 20
111.121884
 42
0.000000
 10
433.638556
 20
89.822417
 42
0.000000
 10
428.511397
 20
70.272137
 42
-0.239125
 10
418.368184
 20
59.476580
 42
0.000000
 10
395.985221
 20
55.552455
 42
0.000000
 10
388.245985
 20
55.299382
 42
0.000000
 10
377.268390
 20
54.462265
 42
0.000000
 10
355.864181
 20
53.496201
 42
0.000000
 10
340.960597
 20
55.367246
 42
0.000000
  0
LWPOLYLINE
  5
281
100
AcDbEntity
  8
outsidecontur
  6
CONTINUOUS
 62
     3
100
AcDbPolyline
 90
    46
 10
357.823408
 20
-0.221823
 42
0.000000
 10
326.082164
 20
-0.221823
 42
0.000000
 10
315.055364
 20
-42.052561
 42
0.000000
 10
311.745679
 20
-54.750838
 42
0.000000
 10
305.781857
 20
-78.230102
 42
0.000000
 10
302.102047
 20
-93.884511
 42
0.000000
 10
298.880029
 20
-118.073349
 42
0.000000
 10
302.075588
 20
-137.232167
 42
0.000000
 10
261.337203
 20
-137.866521
 42
0.000000
 10
191.063775
 20
-137.578106
 42
0.000000
 10
158.962177
 20
-137.426195
 42
0.000000
 10
163.213669
 20
-131.217647
 42
0.000000
 10
171.037224
 20
-118.746128
 42
0.000000
 10
174.440333
 20
-109.177458
 42
0.000000
 10
177.451249
 20
-93.415208
 42
0.000000
 10
187.849671
 20
-57.357319
 42
0.000000
 10
217.310623
 20
52.223325
 42
0.000000
 10
226.603345
 20
87.033972
 42
0.000000
 10
240.171784
 20
143.235547
 42
0.000000
 10
242.390406
 20
165.476817
 42
0.000000
 10
239.386852
 20
183.417016
 42
0.000000
 10
304.712392
 20
184.277563
 42
0.000000
 10
496.941603
 20
183.417016
 42
-0.215811
 10
547.769045
 20
164.172284
 42
-0.250378
 10
562.276178
 20
116.098062
 42
-0.018198
 10
545.289894
 20
43.513889
 42
-0.197620
 10
522.733223
 20
12.181157
 42
-0.140061
 10
479.417332
 20
-0.195365
 42
0.000000
 10
480.585651
 20
-7.925159
 42
0.000000
 10
481.753969
 20
-15.654953
 42
0.000000
 10
491.785686
 20
-61.076022
 42
0.000000
 10
499.465389
 20
-92.410375
 42
0.000000
 10
501.387420
 20
-108.485935
 42
0.100729
 10
503.801164
 20
-114.112671
 42
0.000000
 10
505.626140
 20
-116.722274
 42
0.000000
 10
508.914421
 20
-120.680886
 42
0.000000
 10
518.383270
 20
-130.828654
 42
0.000000
 10
520.183170
 20
-133.059372
 42
0.000000
 10
520.612946
 20
-133.696856
 42
-0.112452
 10
521.389282
 20
-135.623738
 42
-0.239387
 10
520.972468
 20
-136.594543
 42
-0.092401
 10
520.392848
 20
-136.894048
 42
-0.073348
 10
519.131908
 20
-137.098014
 42
0.000000
 10
518.672758
 20
-137.108694
 42
0.000000
 10
384.440545
 20
-137.108694
 42
0.000000
 10
357.823408
 20
-0.221823
 42
0.000000
  0
ENDBLK
  5
2B0
100
AcDbEntity
  8
0
100
AcDbBlockEnd
  0
BLOCK
  5
2B1
100
AcDbEntity
  8
outsidecontur
100
AcDbBlockBegin
  2
B-5
 70
    66
 10
0.000000
 20
0.000000
 30
0.000000
  0
LWPOLYLINE
  5
2B2
100
AcDbEntity
  8
outsidecontur
  6
CONTINUOUS
 62
     3
100
AcDbPolyline
 90
    54
 10
603.771747
 20
-137.108694
 42
0.000000
 10
530.922991
 20
-137.108694
 42
0.000000
 10
531.173531
 20
-134.779613
 42
-0.079726
 10
532.901752
 20
-130.471358
 42
0.000000
 10
534.349891
 20
-128.254867
 42
0.000000
 10
535.622605
 20
-126.584843
 42
0.000000
 10
539.612696
 20
-121.704803
 42
0.000000
 10
540.982890
 20
-119.886695
 42
0.000000
 10
542.520703
 20
-117.461753
 42
0.000000
 10
543.570099
 20
-115.227609
 42
0.000000
 10
550.139129
 20
-98.460572
 42
0.000000
 10
556.104707
 20
-73.637751
 42
0.000000
 10
558.607703
 20
-61.855514
 42
0.000000
 10
560.626939
 20
-53.579569
 42
0.000000
 10
562.480692
 20
-46.731816
 42
0.000000
 10
564.334445
 20
-39.848785
 42
0.000000
 10
566.938284
 20
-30.213273
 42
0.000000
 10
577.122384
 20
8.103363
 42
0.000000
 10
596.098583
 20
79.902834
 42
0.000000
 10
613.402600
 20
152.063829
 42
0.094435
 10
613.522678
 20
157.741085
 42
0.037868
 10
612.085877
 20
163.790894
 42
0.000000
 10
608.491241
 20
174.854697
 42
0.000000
 10
607.741386
 20
177.922780
 42
-0.069501
 10
607.553350
 20
181.176917
 42
0.000000
 10
608.154235
 20
182.791155
 42
-0.145518
 10
609.303439
 20
183.763407
 42
-0.101877
 10
610.994883
 20
184.102166
 42
0.000000
 10
753.773158
 20
183.725697
 42
0.000000
 10
838.140133
 20
-62.804726
 42
0.000000
 10
838.826862
 20
-60.129000
 42
0.000000
 10
891.365586
 20
142.441795
 42
0.000000
 10
893.818589
 20
159.547189
 42
0.000000
 10
893.076562
 20
175.647070
 42
0.000000
 10
890.836419
 20
183.549308
 42
0.000000
 10
964.082051
 20
183.549308
 42
0.000000
 10
955.939735
 20
167.330031
 42
0.000000
 10
949.415295
 20
154.767319
 42
0.000000
 10
945.834584
 20
145.396315
 42
0.000000
 10
925.028158
 20
69.495625
 42
0.000000
 10
893.411702
 20
-53.579569
 42
0.000000
 10
891.656244
 20
-65.465995
 42
0.000000
 10
891.226313
 20
-87.551046
 42
0.000000
 10
886.626991
 20
-125.718597
 42
-0.343767
 10
872.527215
 20
-136.711818
 42
0.000000
 10
737.095556
 20
-136.711818
 42
0.000000
 10
654.757058
 20
104.765053
 42
0.000000
 10
623.686591
 20
-13.551124
 42
0.000000
 10
614.895101
 20
-46.797670
 42
0.000000
 10
609.957610
 20
-66.946226
 42
0.000000
 10
606.759564
 20
-80.286424
 42
0.000000
 10
601.531604
 20
-104.697171
 42
0.000000
 10
601.001475
 20
-124.059493
 42
0.000000
 10
603.771747
 20
-137.108694
 42
0.000000
  0
ENDBLK
  5
2E9
100
AcDbEntity
  8
0
100
AcDbBlockEnd
  0
BLOCK
  5
2EA
100
AcDbEntity
  8
outsidecontur
100
AcDbBlockBegin
  2
B-6
 70
    66
 10
0.000000
 20
0.000000
 30
0.000000
  0
LWPOLYLINE
  5
2EB
100
AcDbEntity
  8
outsidecontur
  6
CONTINUOUS
 62
     3
100
AcDbPolyline
 90
     4
 10
-678.163525
 20
-34.873490
 42
0.000000
 10
-801.865300
 20
-34.873490
 42
0.000000
 10
-707.408861
 20
108.195824
 42
0.000000
 10
-678.163525
 20
-34.873490
 42
0.000000
  0
LWPOLYLINE
  5
2F0
100
AcDbEntity
  8
outsidecontur
  6
CONTINUOUS
 62
     3
100
AcDbPolyline
 90
    47
 10
-645.496237
 20
-194.417559
 42
0.000000
 10
-664.987248
 20
-92.976106
 42
0.000000
 10
-842.046769
 20
-92.976106
 42
0.000000
 10
-850.894382
 20
-108.207412
 42
0.000000
 10
-866.885609
 20
-128.629752
 42
0.000000
 10
-888.148484
 20
-158.004356
 42
0.000000
 10
-896.057155
 20
-181.241282
 42
0.000000
 10
-895.695395
 20
-188.090322
 42
0.000000
 10
-894.610763
 20
-194.417559
 42
0.000000
 10
-995.390757
 20
-194.417559
 42
0.000000
 10
-996.419705
 20
-193.608087
 42
0.000000
 10
-996.877497
 20
-192.746417
 42
0.000000
 10
-996.918742
 20
-192.383159
 42
0.000000
 10
-996.721207
 20
-191.607842
 42
0.000000
 10
-995.575175
 20
-190.218631
 42
0.000000
 10
-995.141180
 20
-189.852922
 42
0.000000
 10
-993.750025
 20
-188.855390
 42
0.000000
 10
-991.766714
 20
-187.647519
 42
0.000000
 10
-984.249323
 20
-183.504330
 42
0.000000
 10
-980.052796
 20
-180.872739
 42
0.000000
 10
-977.441346
 20
-178.737683
 42
0.000000
 10
-976.194978
 20
-177.342665
 42
0.000000
 10
-975.414675
 20
-176.090717
 42
0.000000
 10
-950.714117
 20
-143.063388
 42
0.000000
 10
-845.899531
 20
15.902333
 42
0.000000
 10
-790.015391
 20
100.112924
 42
0.000000
 10
-748.242971
 20
157.196755
 42
0.000000
 10
-747.521832
 20
158.797602
 42
0.000000
 10
-747.600799
 20
160.679674
 42
0.000000
 10
-748.110679
 20
161.712320
 42
0.000000
 10
-752.712367
 20
166.776064
 42
0.000000
 10
-757.865004
 20
171.299075
 42
0.000000
 10
-761.359394
 20
173.704079
 42
0.000000
 10
-766.164118
 20
176.432002
 42
0.000000
 10
-777.497126
 20
180.912289
 42
0.000000
 10
-578.309575
 20
181.309165
 42
0.000000
 10
-553.722178
 20
120.909087
 42
0.000000
 10
-539.532410
 20
27.297230
 42
0.000000
 10
-534.362696
 20
-20.612071
 42
0.000000
 10
-520.932120
 20
-102.431287
 42
0.000000
 10
-516.845163
 20
-127.433092
 42
0.000000
 10
-507.304086
 20
-154.227270
 42
0.000000
 10
910.900695
 20
-154.183173
 42
0.000000
 10
903.484161
 20
-170.156094
 42
0.000000
 10
899.964562
 20
-182.819966
 42
0.000000
 10
897.856711
 20
-194.690962
 42
0.000000
 10
-645.496237
 20
-194.417559
 42
0.000000
  0
ENDBLK
  5
320
100
AcDbEntity
  8
0
100
AcDbBlockEnd
  0
BLOCK
  5
321
100
AcDbEntity
  8
SCHRAFF
100
AcDbBlockBegin
  2
B-7
 70
    66
 10
0.000000
 20
0.000000
 30
0.000000
  0
HATCH
  5
322
100
AcDbEntity
  8
SCHRAFF
 62
   154
440
     0
100
AcDbHatch
 10
0.000000
 20
0.000000
 30
0.000000
210
0.000000
220
0.000000
230
1.000000
  2
SOLID
 70
     1
 71
     1
 91
     2
 92
    18
 72
     1
 73
     0
 93
    47
 10
-539.532410
 20
27.297230
 42
0.000000
 10
-553.722178
 20
120.909087
 42
0.000000
 10
-578.309575
 20
181.309165
 42
0.000000
 10
-777.497126
 20
180.912289
 42
0.000000
 10
-766.164118
 20
176.432002
 42
0.000000
 10
-761.359394
 20
173.704079
 42
0.000000
 10
-757.865004
 20
171.299075
 42
0.000000
 10
-752.712367
 20
166.776064
 42
0.000000
 10
-748.110679
 20
161.712320
 42
0.000000
 10
-747.600799
 20
160.679674
 42
0.000000
 10
-747.521832
 20
158.797602
 42
0.000000
 10
-748.242971
 20
157.196755
 42
0.000000
 10
-790.015391
 20
100.112924
 42
0.000000
 10
-845.899531
 20
15.902333
 42
0.000000
 10
-950.714117
 20
-143.063388
 42
0.000000
 10
-975.414675
 20
-176.090717
 42
0.000000
 10
-976.194978
 20
-177.342665
 42
0.000000
 10
-977.441346
 20
-178.737683
 42
0.000000
 10
-980.052796
 20
-180.872739
 42
0.000000
 10
-984.249323
 20
-183.504330
 42
0.000000
 10
-991.766714
 20
-187.647519
 42
0.000000
 10
-993.750025
 20
-188.855390
 42
0.000000
 10
-995.141180
 20
-189.852922
 42
0.000000
 10
-995.575175
 20
-190.218631
 42
0.000000
 10
-996.721207
 20
-191.607842
 42
0.000000
 10
-996.918742
 20
-192.383159
 42
0.000000
 10
-996.877497
 20
-192.746417
 42
0.000000
 10
-996.419705
 20
-193.608087
 42
0.000000
 10
-995.390757
 20
-194.417559
 42
0.000000
 10
-894.610763
 20
-194.417559
 42
0.000000
 10
-895.695395
 20
-188.090322
 42
0.000000
 10
-896.057155
 20
-181.241282
 42
0.000000
 10
-888.148484
 20
-158.004356
 42
0.000000
 10
-866.885609
 20
-128.629752
 42
0.000000
 10
-850.894382
 20
-108.207412
 42
0.000000
 10
-842.046769
 20
-92.976106
 42
0.000000
 10
-664.987248
 20
-92.976106
 42
0.000000
 10
-645.496237
 20
-194.417559
 42
0.000000
 10
897.856711
 20
-194.690962
 42
0.000000
 10
899.964562
 20
-182.819966
 42
0.000000
 10
903.484161
 20
-170.156094
 42
0.000000
 10
910.900695
 20
-154.183173
 42
0.000000
 10
-507.304086
 20
-154.227270
 42
0.000000
 10
-516.845163
 20
-127.433092
 42
0.000000
 10
-520.932120
 20
-102.431287
 42
0.000000
 10
-534.362696
 20
-20.612071
 42
0.000000
 10
-539.532410
 20
27.297230
 42
0.000000
 97
     0
 92
     2
 72
     1
 73
     0
 93
     4
 10
-801.865300
 20
-34.873490
 42
0.000000
 10
-707.408861
 20
108.195824
 42
0.000000
 10
-678.163525
 20
-34.873490
 42
0.000000
 10
-801.865300
 20
-34.873490
 42
0.000000
 97
     0
 75
     0
 76
     1
 98
     0
  0
ENDBLK
  5
323
100
AcDbEntity
  8
0
100
AcDbBlockEnd
  0
BLOCK
  5
324
100
AcDbEntity
  8
SCHRAFF
100
AcDbBlockBegin
  2
B-8
 70
    66
 10
0.000000
 20
0.000000
 30
0.000000
  0
HATCH
  5
325
100
AcDbEntity
  8
SCHRAFF
 62
   154
440
     0
100
AcDbHatch
 10
0.000000
 20
0.000000
 30
0.000000
210
0.000000
220
0.000000
230
1.000000
  2
SOLID
 70
     1
 71
     1
 91
     2
 92
    18
 72
     1
 73
     0
 93
    49
 10
-842.046769
 20
-92.976106
 42
0.000000
 10
-664.987248
 20
-92.976106
 42
0.000000
 10
-645.496237
 20
-194.417559
 42
0.000000
 10
897.856711
 20
-194.690962
 42
0.000000
 10
899.964562
 20
-182.819966
 42
0.000000
 10
903.484161
 20
-170.156094
 42
0.000000
 10
910.900695
 20
-154.183173
 42
0.000000
 10
-507.304086
 20
-154.227270
 42
0.000000
 10
-516.845163
 20
-127.433092
 42
0.000000
 10
-525.019052
 20
-77.429483
 42
0.000000
 10
-526.383315
 20
-67.464227
 42
0.000000
 10
-534.362696
 20
-20.612071
 42
0.000000
 10
-539.532410
 20
27.297230
 42
0.000000
 10
-553.722178
 20
120.909087
 42
0.000000
 10
-578.309575
 20
181.309165
 42
0.000000
 10
-777.497126
 20
180.912289
 42
0.000000
 10
-766.164118
 20
176.432002
 42
0.000000
 10
-761.359394
 20
173.704079
 42
0.000000
 10
-757.865004
 20
171.299075
 42
0.000000
 10
-752.712367
 20
166.776064
 42
0.000000
 10
-748.110679
 20
161.712320
 42
-0.104314
 10
-747.600799
 20
160.679674
 42
0.000000
 10
-747.521832
 20
158.797602
 42
0.000000
 10
-748.242971
 20
157.196755
 42
0.000000
 10
-790.015391
 20
100.112924
 42
0.000000
 10
-852.301848
 20
6.254823
 42
0.000000
 10
-934.759786
 20
-118.926854
 42
0.000000
 10
-950.714117
 20
-143.063388
 42
0.000000
 10
-975.414675
 20
-176.090717
 42
0.000000
 10
-976.194978
 20
-177.342665
 42
0.000000
 10
-977.441346
 20
-178.737683
 42
0.000000
 10
-980.052796
 20
-180.872739
 42
0.000000
 10
-984.249323
 20
-183.504330
 42
0.000000
 10
-991.766714
 20
-187.647519
 42
0.000000
 10
-993.750025
 20
-188.855390
 42
0.023603
 10
-995.141180
 20
-189.852922
 42
0.090652
 10
-996.721207
 20
-191.607842
 42
0.117796
 10
-996.903689
 20
-192.162808
 42
0.000000
 10
-996.918742
 20
-192.383159
 42
0.000000
 10
-996.877497
 20
-192.746417
 42
0.000000
 10
-996.419705
 20
-193.608087
 42
0.000000
 10
-995.390757
 20
-194.417559
 42
0.000000
 10
-894.610763
 20
-194.417559
 42
0.000000
 10
-895.695395
 20
-188.090322
 42
0.000000
 10
-896.057155
 20
-181.241282
 42
0.000000
 10
-888.148484
 20
-158.004356
 42
0.000000
 10
-866.885609
 20
-128.629752
 42
0.000000
 10
-850.894382
 20
-108.207412
 42
0.000000
 10
-842.046769
 20
-92.976106
 42
0.000000
 97
     0
 92
     2
 72
     1
 73
     0
 93
     4
 10
-707.408861
 20
108.195824
 42
0.000000
 10
-678.163525
 20
-34.873490
 42
0.000000
 10
-801.865300
 20
-34.873490
 42
0.000000
 10
-707.408861
 20
108.195824
 42
0.000000
 97
     0
 75
     0
 76
     1
 98
     0
  0
ENDBLK
  5
326
100
AcDbEntity
  8
0
100
AcDbBlockEnd
  0
ENDSEC
  0
SECTION
  2
ENTITIES
  0
INSERT
  5
327
100
AcDbEntity
  8
0
100
AcDbBlockReference
  2
B
 10
0.000000
 20
0.000000
 30
0.000000
 41
1.000000
 42
1.000000
 43
1.000000
 50
0.000000
  0
INSERT
  5
328
100
AcDbEntity
  8
outsidecontur
100
AcDbBlockReference
  2
B-2
 10
0.000000
 20
0.000000
 30
0.000000
 41
1.000000
 42
1.000000
 43
1.000000
 50
0.000000
  0
INSERT
  5
329
100
AcDbEntity
  8
outsidecontur
100
AcDbBlockReference
  2
B-3
 10
0.000000
 20
0.000000
 30
0.000000
 41
1.000000
 42
1.000000
 43
1.000000
 50
0.000000
  0
INSERT
  5
32A
100
AcDbEntity
  8
outsidecontur
100
AcDbBlockReference
  2
B-4
 10
0.000000
 20
0.000000
 30
0.000000
 41
1.000000
 42
1.000000
 43
1.000000
 50
0.000000
  0
INSERT
  5
32B
100
AcDbEntity
  8
outsidecontur
100
AcDbBlockReference
  2
B-5
 10
0.000000
 20
0.000000
 30
0.000000
 41
1.000000
 42
1.000000
 43
1.000000
 50
0.000000
  0
INSERT
  5
32C
100
AcDbEntity
  8
outsidecontur
100
AcDbBlockReference
  2
B-6
 10
0.000000
 20
0.000000
 30
0.000000
 41
1.000000
 42
1.000000
 43
1.000000
 50
0.000000
  0
INSERT
  5
32D
100
AcDbEntity
  8
0
100
AcDbBlockReference
  2
B-7
 10
0.000000
 20
0.000000
 30
0.000000
 41
1.000000
 42
1.000000
 43
1.000000
 50
0.000000
  0
INSERT
  5
32E
100
AcDbEntity
  8
0
100
AcDbBlockReference
  2
B-8
 10
0.000000
 20
0.000000
 30
0.000000
 41
1.000000
 42
1.000000
 43
1.000000
 50
0.000000
  0
ENDSEC
  0
SECTION
  2
OBJECTS
  0
DICTIONARY
  5
C
330
0
100
AcDbDictionary
281
     1
  3
ACAD_COLOR
350
6B
  3
ACAD_GROUP
350
D
  3
ACAD_IMAGE_DICT
350
1E2
  3
ACAD_IMAGE_VARS
350
1E3
  3
ACAD_MATERIAL
350
6A
  3
ACAD_MLINESTYLE
350
17
  3
ACAD_PLOTSETTINGS
350
19
  3
ACAD_PLOTSTYLENAME
350
E
  3
ACAD_SCALELIST
350
10C
  3
ACAD_TABLESTYLE
350
7E
  3
ACAD_VISUALSTYLE
350
EF
  3
ACDB_RECOMPOSE_DATA
350
15D
  3
AcDbVariableDictionary
350
5E
  0
DICTIONARY
  5
13C
330
10
100
AcDbDictionary
280
     1
281
     1
  0
DICTIONARY
  5
203
330
202
100
AcDbDictionary
280
     1
281
     1
  0
DICTIONARY
  5
6B
102
{ACAD_REACTORS
330
C
102
}
330
C
100
AcDbDictionary
281
     1
  0
DICTIONARY
  5
D
102
{ACAD_REACTORS
330
C
102
}
330
C
100
AcDbDictionary
281
     1
  0
DICTIONARY
  5
1E2
102
{ACAD_REACTORS
330
C
102
}
330
C
100
AcDbDictionary
281
     1
  0
RASTERVARIABLES
  5
1E3
102
{ACAD_REACTORS
330
C
102
}
330
C
100
AcDbRasterVariables
 90
        0
 70
     1
 71
     1
 72
     1
  0
DICTIONARY
  5
6A
102
{ACAD_REACTORS
330
C
102
}
330
C
100
AcDbDictionary
281
     1
  3
ByBlock
350
ED
  3
ByLayer
350
EC
  3
Global
350
EE
  0
DICTIONARY
  5
12D
102
{ACAD_REACTORS
330
C
102
}
330
C
100
AcDbDictionary
281
     1
  3
Annotative
350
13B
  3
Standard
350
12E
  0
DICTIONARY
  5
17
102
{ACAD_REACTORS
330
C
102
}
330
C
100
AcDbDictionary
281
     1
  3
Standard
350
18
  0
DICTIONARY
  5
19
102
{ACAD_REACTORS
330
C
102
}
330
C
100
AcDbDictionary
281
     1
  0
ACDBDICTIONARYWDFLT
  5
E
102
{ACAD_REACTORS
330
C
102
}
330
C
100
AcDbDictionary
281
     1
  3
Normal
350
F
100
AcDbDictionaryWithDefault
340
F
  0
DICTIONARY
  5
10C
102
{ACAD_REACTORS
330
C
102
}
330
C
100
AcDbDictionary
281
     1
  3
A0
350
10D
  3
A1
350
1BE
  3
A2
350
1BF
  3
A3
350
1C0
  3
A4
350
1C1
  3
A5
350
1C2
  3
A6
350
1C3
  3
A7
350
1C4
  3
A8
350
1C5
  3
A9
350
1C6
  3
B0
350
1C7
  3
B1
350
1C8
  3
B2
350
1C9
  3
B3
350
1CA
  3
B4
350
1CB
  3
B5
350
1CC
  3
B6
350
1CD
  0
DICTIONARY
  5
7E
102
{ACAD_REACTORS
330
C
102
}
330
C
100
AcDbDictionary
281
     1
  3
Standard
350
7F
  0
DICTIONARY
  5
EF
102
{ACAD_REACTORS
330
C
102
}
330
C
100
AcDbDictionary
281
     1
  3
2dWireframe
350
F5
  3
3D Hidden
350
F7
  3
3dWireframe
350
F6
  3
Basic
350
F4
  3
Brighten
350
FB
  3
ColorChange
350
FF
  3
Conceptual
350
F8
  3
Dim
350
FA
  3
Facepattern
350
FE
  3
Flat
350
F0
  3
FlatWithEdges
350
F1
  3
Gouraud
350
F2
  3
GouraudWithEdges
350
F3
  3
Linepattern
350
FD
  3
Realistic
350
F9
  3
Thicken
350
FC
  0
XRECORD
  5
15D
102
{ACAD_REACTORS
330
C
102
}
330
C
100
AcDbXrecord
280
     1
 90
        1
330
7F
  0
DICTIONARY
  5
5E
102
{ACAD_REACTORS
330
C
102
}
330
C
100
AcDbDictionary
281
     1
  3
CANNOSCALE
350
146
  3
CMLEADERSTYLE
350
145
  3
CTABLESTYLE
350
84
  3
DIMASSOC
350
5F
  3
HIDETEXT
350
63
  3
LAYEREVAL
350
1AE
  3
LAYERNOTIFY
350
1AF
  0
MATERIAL
  5
ED
102
{ACAD_REACTORS
330
6A
102
}
330
6A
100
AcDbMaterial
  1
ByBlock
 94
       63
  0
MATERIAL
  5
EC
102
{ACAD_REACTORS
330
6A
102
}
330
6A
100
AcDbMaterial
  1
ByLayer
 94
       63
  0
MATERIAL
  5
EE
102
{ACAD_XDICTIONARY
360
173
102
}
102
{ACAD_REACTORS
330
6A
102
}
330
6A
100
AcDbMaterial
  1
Global
 43
0.0007999999797903
 43
0.0
 43
0.0
 43
0.0
 43
0.0
 43
0.0007999999797903
 43
0.0
 43
0.0
 43
0.0
 43
0.0
 43
1.0
 43
0.0
 43
0.0
 43
0.0
 43
0.0
 43
1.0
 49
0.0007999999797903
 49
0.0
 49
0.0
 49
0.0
 49
0.0
 49
0.0007999999797903
 49
0.0
 49
0.0
 49
0.0
 49
0.0
 49
1.0
 49
0.0
 49
0.0
 49
0.0
 49
0.0
 49
1.0
142
0.0007999999797903
142
0.0
142
0.0
142
0.0
142
0.0
142
0.0007999999797903
142
0.0
142
0.0
142
0.0
142
0.0
142
1.0
142
0.0
142
0.0
142
0.0
142
0.0
142
1.0
144
0.0007999999797903
144
0.0
144
0.0
144
0.0
144
0.0
144
0.0007999999797903
144
0.0
144
0.0
144
0.0
144
0.0
144
1.0
144
0.0
144
0.0
144
0.0
144
0.0
144
1.0
 94
       63
1001
ACAD
1070
    -1
1070
     3
1070
     0
1000

1071
        0
1070
     0
  0
MLINESTYLE
  5
18
102
{ACAD_REACTORS
330
17
102
}
330
17
100
AcDbMlineStyle
  2
STANDARD
 70
     0
  3

 62
   256
 51
90.0
 52
90.0
 71
     2
 49
0.5
 62
   256
  6
BYLAYER
 49
-0.5
 62
   256
  6
BYLAYER
  0
ACDBPLACEHOLDER
  5
F
102
{ACAD_REACTORS
330
E
102
}
330
E
  0
SCALE
  5
10D
102
{ACAD_REACTORS
330
10C
102
}
330
10C
100
AcDbScale
 70
     0
300
1:1
140
1.0
141
1.0
290
     1
  0
SCALE
  5
1BE
102
{ACAD_REACTORS
330
10C
102
}
330
10C
100
AcDbScale
 70
     0
300
1:2
140
1.0
141
2.0
290
     0
  0
SCALE
  5
1BF
102
{ACAD_REACTORS
330
10C
102
}
330
10C
100
AcDbScale
 70
     0
300
1:4
140
1.0
141
4.0
290
     0
  0
SCALE
  5
1C0
102
{ACAD_REACTORS
330
10C
102
}
330
10C
100
AcDbScale
 70
     0
300
1:5
140
1.0
141
5.0
290
     0
  0
SCALE
  5
1C1
102
{ACAD_REACTORS
330
10C
102
}
330
10C
100
AcDbScale
 70
     0
300
1:8
140
1.0
141
8.0
290
     0
  0
SCALE
  5
1C2
102
{ACAD_REACTORS
330
10C
102
}
330
10C
100
AcDbScale
 70
     0
300
1:10
140
1.0
141
10.0
290
     0
  0
SCALE
  5
1C3
102
{ACAD_REACTORS
330
10C
102
}
330
10C
100
AcDbScale
 70
     0
300
1:16
140
1.0
141
16.0
290
     0
  0
SCALE
  5
1C4
102
{ACAD_REACTORS
330
10C
102
}
330
10C
100
AcDbScale
 70
     0
300
1:20
140
1.0
141
20.0
290
     0
  0
SCALE
  5
1C5
102
{ACAD_REACTORS
330
10C
102
}
330
10C
100
AcDbScale
 70
     0
300
1:30
140
1.0
141
30.0
290
     0
  0
SCALE
  5
1C6
102
{ACAD_REACTORS
330
10C
102
}
330
10C
100
AcDbScale
 70
     0
300
1:40
140
1.0
141
40.0
290
     0
  0
SCALE
  5
1C7
102
{ACAD_REACTORS
330
10C
102
}
330
10C
100
AcDbScale
 70
     0
300
1:50
140
1.0
141
50.0
290
     0
  0
SCALE
  5
1C8
102
{ACAD_REACTORS
330
10C
102
}
330
10C
100
AcDbScale
 70
     0
300
1:100
140
1.0
141
100.0
290
     0
  0
SCALE
  5
1C9
102
{ACAD_REACTORS
330
10C
102
}
330
10C
100
AcDbScale
 70
     0
300
2:1
140
2.0
141
1.0
290
     0
  0
SCALE
  5
1CA
102
{ACAD_REACTORS
330
10C
102
}
330
10C
100
AcDbScale
 70
     0
300
4:1
140
4.0
141
1.0
290
     0
  0
SCALE
  5
1CB
102
{ACAD_REACTORS
330
10C
102
}
330
10C
100
AcDbScale
 70
     0
300
8:1
140
8.0
141
1.0
290
     0
  0
SCALE
  5
1CC
102
{ACAD_REACTORS
330
10C
102
}
330
10C
100
AcDbScale
 70
     0
300
10:1
140
10.0
141
1.0
290
     0
  0
SCALE
  5
1CD
102
{ACAD_REACTORS
330
10C
102
}
330
10C
100
AcDbScale
 70
     0
300
100:1
140
100.0
141
1.0
290
     0
  0
TABLESTYLE
  5
7F
102
{ACAD_XDICTIONARY
360
162
102
}
102
{ACAD_REACTORS
330
7E
102
}
330
7E
100
AcDbTableStyle
  3
Standard
 70
     0
 71
     0
 40
1.5
 41
1.5
280
     0
281
     0
  7
Standard
140
4.5
170
     2
 62
     0
 63
     7
283
     0
 90
      512
 91
        0
  1

274
    -2
284
     1
 64
     0
275
    -2
285
     1
 65
     0
276
    -2
286
     1
 66
     0
277
    -2
287
     1
 67
     0
278
    -2
288
     1
 68
     0
279
    -2
289
     1
 69
     0
  7
Standard
140
6.0
170
     5
 62
     0
 63
     7
283
     0
 90
      512
 91
        0
  1

274
    -2
284
     1
 64
     0
275
    -2
285
     1
 65
     0
276
    -2
286
     1
 66
     0
277
    -2
287
     1
 67
     0
278
    -2
288
     1
 68
     0
279
    -2
289
     1
 69
     0
  7
Standard
140
4.5
170
     5
 62
     0
 63
     7
283
     0
 90
      512
 91
        0
  1

274
    -2
284
     1
 64
     0
275
    -2
285
     1
 65
     0
276
    -2
286
     1
 66
     0
277
    -2
287
     1
 67
     0
278
    -2
288
     1
 68
     0
279
    -2
289
     1
 69
     0
  0
VISUALSTYLE
  5
F5
102
{ACAD_REACTORS
330
EF
102
}
330
EF
100
AcDbVisualStyle
  2
2dWireframe
 70
     4
 71
     0
 72
     2
 73
     1
 90
        0
 40
-0.6
 41
-30.0
 62
     5
 63
     7
421
 16777215
 74
     1
 91
        4
 64
     7
 65
   257
 75
     1
175
     1
 42
1.0
 92
        0
 66
   257
 43
1.0
 76
     1
 77
     6
 78
     2
 67
     7
 79
     5
170
     0
171
     0
290
     0
174
     0
 93
        1
 44
0.0
173
     0
291
     0
 45
0.0
  0
VISUALSTYLE
  5
F7
102
{ACAD_REACTORS
330
EF
102
}
330
EF
100
AcDbVisualStyle
  2
3D Hidden
 70
     6
 71
     1
 72
     2
 73
     2
 90
        0
 40
-0.6
 41
-30.0
 62
     5
 63
     7
421
 16777215
 74
     2
 91
        2
 64
     7
 65
   257
 75
     2
175
     1
 42
40.0
 92
        0
 66
   257
 43
1.0
 76
     1
 77
     6
 78
     2
 67
     7
 79
     3
170
     0
171
     0
290
     0
174
     0
 93
        1
 44
0.0
173
     0
291
     0
 45
0.0
  0
VISUALSTYLE
  5
F6
102
{ACAD_REACTORS
330
EF
102
}
330
EF
100
AcDbVisualStyle
  2
3dWireframe
 70
     5
 71
     0
 72
     2
 73
     1
 90
        0
 40
-0.6
 41
-30.0
 62
     5
 63
     7
421
 16777215
 74
     1
 91
        4
 64
     7
 65
   257
 75
     1
175
     1
 42
1.0
 92
        0
 66
   257
 43
1.0
 76
     1
 77
     6
 78
     2
 67
     7
 79
     5
170
     0
171
     0
290
     0
174
     0
 93
        1
 44
0.0
173
     0
291
     0
 45
0.0
  0
VISUALSTYLE
  5
F4
102
{ACAD_REACTORS
330
EF
102
}
330
EF
100
AcDbVisualStyle
  2
Basic
 70
     7
 71
     1
 72
     0
 73
     1
 90
        0
 40
-0.6
 41
-30.0
 62
     5
 63
     7
421
 16777215
 74
     0
 91
        4
 64
     7
 65
   257
 75
     1
175
     1
 42
1.0
 92
        8
 66
     7
 43
1.0
 76
     1
 77
     6
 78
     2
 67
     7
 79
     5
170
     0
171
     0
290
     0
174
     0
 93
        1
 44
0.0
173
     0
291
     1
 45
0.0
  0
VISUALSTYLE
  5
FB
102
{ACAD_REACTORS
330
EF
102
}
330
EF
100
AcDbVisualStyle
  2
Brighten
 70
    12
 71
     2
 72
     2
 73
     1
 90
        0
 40
-0.6
 41
-30.0
 62
     5
 63
     7
421
 16777215
 74
     1
 91
        4
 64
     7
 65
   257
 75
     1
175
     1
 42
1.0
 92
        8
 66
     7
 43
1.0
 76
     1
 77
     6
 78
     2
 67
     7
 79
     5
170
     0
171
     0
290
     0
174
     0
 93
        1
 44
50.0
173
     0
291
     1
 45
0.0
  0
VISUALSTYLE
  5
FF
102
{ACAD_REACTORS
330
EF
102
}
330
EF
100
AcDbVisualStyle
  2
ColorChange
 70
    16
 71
     2
 72
     2
 73
     3
 90
        0
 40
-0.6
 41
-30.0
 62
     5
 63
     8
421
  8421504
 74
     1
 91
        4
 64
     7
 65
   257
 75
     1
175
     1
 42
1.0
 92
        8
 66
     8
424
  8421504
 43
1.0
 76
     1
 77
     6
 78
     2
 67
     7
 79
     5
170
     0
171
     0
290
     0
174
     0
 93
        1
 44
0.0
173
     0
291
     1
 45
0.0
  0
VISUALSTYLE
  5
F8
102
{ACAD_REACTORS
330
EF
102
}
330
EF
100
AcDbVisualStyle
  2
Conceptual
 70
     9
 71
     3
 72
     2
 73
     1
 90
        0
 40
-0.6
 41
-30.0
 62
     5
 63
     7
421
 16777215
 74
     2
 91
        2
 64
     7
 65
   257
 75
     1
175
     1
 42
40.0
 92
        8
 66
     7
 43
1.0
 76
     1
 77
     6
 78
     2
 67
     7
 79
     3
170
     0
171
     0
290
     0
174
     0
 93
        1
 44
0.0
173
     0
291
     0
 45
0.0
  0
VISUALSTYLE
  5
FA
102
{ACAD_REACTORS
330
EF
102
}
330
EF
100
AcDbVisualStyle
  2
Dim
 70
    11
 71
     2
 72
     2
 73
     1
 90
        0
 40
-0.6
 41
-30.0
 62
     5
 63
     7
421
 16777215
 74
     1
 91
        4
 64
     7
 65
   257
 75
     1
175
     1
 42
1.0
 92
        8
 66
     7
 43
1.0
 76
     1
 77
     6
 78
     2
 67
     7
 79
     5
170
     0
171
     0
290
     0
174
     0
 93
        1
 44
-50.0
173
     0
291
     1
 45
0.0
  0
VISUALSTYLE
  5
FE
102
{ACAD_REACTORS
330
EF
102
}
330
EF
100
AcDbVisualStyle
  2
Facepattern
 70
    15
 71
     2
 72
     2
 73
     1
 90
        0
 40
-0.6
 41
-30.0
 62
     5
 63
     7
421
 16777215
 74
     1
 91
        4
 64
     7
 65
   257
 75
     1
175
     1
 42
1.0
 92
        8
 66
     7
 43
1.0
 76
     1
 77
     6
 78
     2
 67
     7
 79
     5
170
     0
171
     0
290
     0
174
     0
 93
        1
 44
0.0
173
     0
291
     1
 45
0.0
  0
VISUALSTYLE
  5
F0
102
{ACAD_REACTORS
330
EF
102
}
330
EF
100
AcDbVisualStyle
  2
Flat
 70
     0
 71
     2
 72
     1
 73
     1
 90
        2
 40
-0.6
 41
30.0
 62
     5
 63
     7
421
 16777215
 74
     0
 91
        4
 64
     7
 65
   257
 75
     1
175
     1
 42
1.0
 92
        8
 66
     7
 43
1.0
 76
     1
 77
     6
 78
     2
 67
     7
 79
     5
170
     0
171
     0
290
     0
174
     0
 93
        1
 44
0.0
173
     0
291
     1
 45
0.0
  0
VISUALSTYLE
  5
F1
102
{ACAD_REACTORS
330
EF
102
}
330
EF
100
AcDbVisualStyle
  2
FlatWithEdges
 70
     1
 71
     2
 72
     1
 73
     1
 90
        2
 40
-0.6
 41
30.0
 62
     5
 63
     7
421
 16777215
 74
     1
 91
        4
 64
     7
 65
   257
 75
     1
175
     1
 42
1.0
 92
        0
 66
   257
 43
1.0
 76
     1
 77
     6
 78
     2
 67
     7
 79
     5
170
     0
171
     0
290
     0
174
     0
 93
        1
 44
0.0
173
     0
291
     1
 45
0.0
  0
VISUALSTYLE
  5
F2
102
{ACAD_REACTORS
330
EF
102
}
330
EF
100
AcDbVisualStyle
  2
Gouraud
 70
     2
 71
     2
 72
     2
 73
     1
 90
        2
 40
-0.6
 41
30.0
 62
     5
 63
     7
421
 16777215
 74
     0
 91
        4
 64
     7
 65
   257
 75
     1
175
     1
 42
1.0
 92
        0
 66
     7
 43
1.0
 76
     1
 77
     6
 78
     2
 67
     7
 79
     5
170
     0
171
     0
290
     0
174
     0
 93
        1
 44
0.0
173
     0
291
     1
 45
0.0
  0
VISUALSTYLE
  5
F3
102
{ACAD_REACTORS
330
EF
102
}
330
EF
100
AcDbVisualStyle
  2
GouraudWithEdges
 70
     3
 71
     2
 72
     2
 73
     1
 90
        2
 40
-0.6
 41
30.0
 62
     5
 63
     7
421
 16777215
 74
     1
 91
        4
 64
     7
 65
   257
 75
     1
175
     1
 42
1.0
 92
        0
 66
   257
 43
1.0
 76
     1
 77
     6
 78
     2
 67
     7
 79
     5
170
     0
171
     0
290
     0
174
     0
 93
        1
 44
0.0
173
     0
291
     1
 45
0.0
  0
VISUALSTYLE
  5
FD
102
{ACAD_REACTORS
330
EF
102
}
330
EF
100
AcDbVisualStyle
  2
Linepattern
 70
    14
 71
     2
 72
     2
 73
     1
 90
        0
 40
-0.6
 41
-30.0
 62
     5
 63
     7
421
 16777215
 74
     1
 91
        4
 64
     7
 65
   257
 75
     7
175
     7
 42
1.0
 92
        8
 66
     7
 43
1.0
 76
     1
 77
     6
 78
     2
 67
     7
 79
     5
170
     0
171
     0
290
     0
174
     0
 93
        1
 44
0.0
173
     0
291
     1
 45
0.0
  0
VISUALSTYLE
  5
F9
102
{ACAD_REACTORS
330
EF
102
}
330
EF
100
AcDbVisualStyle
  2
Realistic
 70
     8
 71
     2
 72
     2
 73
     1
 90
        0
 40
-0.6
 41
-30.0
 62
     5
 63
     7
421
 16777215
 74
     1
 91
        0
 64
     7
 65
   257
 75
     1
175
     1
 42
1.0
 92
        8
 66
     8
424
  7895160
 43
1.0
 76
     1
 77
     6
 78
     2
 67
     7
 79
     5
170
     0
171
     0
290
     0
174
     0
 93
       13
 44
0.0
173
     0
291
     0
 45
0.0
  0
VISUALSTYLE
  5
FC
102
{ACAD_REACTORS
330
EF
102
}
330
EF
100
AcDbVisualStyle
  2
Thicken
 70
    13
 71
     2
 72
     2
 73
     1
 90
        0
 40
-0.6
 41
-30.0
 62
     5
 63
     7
421
 16777215
 74
     1
 91
        4
 64
     7
 65
   257
 75
     1
175
     1
 42
1.0
 92
       12
 66
     7
 43
1.0
 76
     1
 77
     6
 78
     2
 67
     7
 79
     5
170
     0
171
     0
290
     0
174
     0
 93
        1
 44
0.0
173
     0
291
     1
 45
0.0
  0
DICTIONARYVAR
  5
146
102
{ACAD_REACTORS
330
5E
102
}
330
5E
100
DictionaryVariables
280
     0
  1
1:1
  0
DICTIONARYVAR
  5
145
102
{ACAD_REACTORS
330
5E
102
}
330
5E
100
DictionaryVariables
280
     0
  1
STANDARD
  0
DICTIONARYVAR
  5
84
102
{ACAD_REACTORS
330
5E
102
}
330
5E
100
DictionaryVariables
280
     0
  1
STANDARD
  0
DICTIONARYVAR
  5
5F
102
{ACAD_REACTORS
330
5E
102
}
330
5E
100
DictionaryVariables
280
     0
  1
2
  0
DICTIONARYVAR
  5
63
102
{ACAD_REACTORS
330
5E
102
}
330
5E
100
DictionaryVariables
280
     0
  1
1
  0
DICTIONARYVAR
  5
1AE
102
{ACAD_REACTORS
330
5E
102
}
330
5E
100
DictionaryVariables
280
     0
  1
0
  0
DICTIONARYVAR
  5
1AF
102
{ACAD_REACTORS
330
5E
102
}
330
5E
100
DictionaryVariables
280
     0
  1
0
  0
DICTIONARY
  5
173
330
EE
100
AcDbDictionary
280
     1
281
     1
  3
BUMPTILE
360
175
  3
DIFFUSETILE
360
174
  3
OPACITYTILE
360
176
  3
REFLECTIONTILE
360
177
  0
DICTIONARY
  5
162
330
7F
100
AcDbDictionary
280
     1
281
     1
  3
ACAD_ROUNDTRIP_2008_TABLESTYLE_CELLSTYLEMAP
360
1E7
  0
XRECORD
  5
175
102
{ACAD_REACTORS
330
173
102
}
330
173
100
AcDbXrecord
280
     1
270
     1
271
     1
  0
XRECORD
  5
174
102
{ACAD_REACTORS
330
173
102
}
330
173
100
AcDbXrecord
280
     1
270
     1
271
     1
  0
XRECORD
  5
176
102
{ACAD_REACTORS
330
173
102
}
330
173
100
AcDbXrecord
280
     1
270
     1
271
     1
  0
XRECORD
  5
177
102
{ACAD_REACTORS
330
173
102
}
330
173
100
AcDbXrecord
280
     1
270
     1
271
     1
  0
CELLSTYLEMAP
  5
1E7
102
{ACAD_REACTORS
330
162
102
}
330
162
100
AcDbCellStyleMap
 90
        3
300
CELLSTYLE
  1
TABLEFORMAT_BEGIN
 90
        5
170
     1
 91
        0
 92
    32768
 62
   257
 93
        1
300
CONTENTFORMAT
  1
CONTENTFORMAT_BEGIN
 90
        0
 91
        0
 92
      512
 93
        0
300

 40
0.0
140
1.0
 94
        5
 62
     0
340
11
144
6.0
309
CONTENTFORMAT_END
171
     1
301
MARGIN
  1
CELLMARGIN_BEGIN
 40
1.5
 40
1.5
 40
1.5
 40
1.5
 40
4.5
 40
4.5
309
CELLMARGIN_END
 94
        6
 95
        1
302
GRIDFORMAT
  1
GRIDFORMAT_BEGIN
 90
        0
 91
        1
 62
     0
 92
       -2
340
0
 93
        0
 40
1.125
309
GRIDFORMAT_END
 95
        2
302
GRIDFORMAT
  1
GRIDFORMAT_BEGIN
 90
        0
 91
        1
 62
     0
 92
       -2
340
0
 93
        0
 40
1.125
309
GRIDFORMAT_END
 95
        4
302
GRIDFORMAT
  1
GRIDFORMAT_BEGIN
 90
        0
 91
        1
 62
     0
 92
       -2
340
0
 93
        0
 40
1.125
309
GRIDFORMAT_END
 95
        8
302
GRIDFORMAT
  1
GRIDFORMAT_BEGIN
 90
        0
 91
        1
 62
     0
 92
       -2
340
0
 93
        0
 40
1.125
309
GRIDFORMAT_END
 95
       16
302
GRIDFORMAT
  1
GRIDFORMAT_BEGIN
 90
        0
 91
        1
 62
     0
 92
       -2
340
0
 93
        0
 40
1.125
309
GRIDFORMAT_END
 95
       32
302
GRIDFORMAT
  1
GRIDFORMAT_BEGIN
 90
        0
 91
        1
 62
     0
 92
       -2
340
0
 93
        0
 40
1.125
309
GRIDFORMAT_END
309
TABLEFORMAT_END
  1
CELLSTYLE_BEGIN
 90
        1
 91
        1
300
_TITLE
309
CELLSTYLE_END
300
CELLSTYLE
  1
TABLEFORMAT_BEGIN
 90
        5
170
     1
 91
        0
 92
        0
 62
   257
 93
        1
300
CONTENTFORMAT
  1
CONTENTFORMAT_BEGIN
 90
        0
 91
        0
 92
      512
 93
        0
300

 40
0.0
140
1.0
 94
        5
 62
     0
340
11
144
4.5
309
CONTENTFORMAT_END
171
     1
301
MARGIN
  1
CELLMARGIN_BEGIN
 40
1.5
 40
1.5
 40
1.5
 40
1.5
 40
4.5
 40
4.5
309
CELLMARGIN_END
 94
        6
 95
        1
302
GRIDFORMAT
  1
GRIDFORMAT_BEGIN
 90
        0
 91
        1
 62
     0
 92
       -2
340
0
 93
        0
 40
1.125
309
GRIDFORMAT_END
 95
        2
302
GRIDFORMAT
  1
GRIDFORMAT_BEGIN
 90
        0
 91
        1
 62
     0
 92
       -2
340
0
 93
        0
 40
1.125
309
GRIDFORMAT_END
 95
        4
302
GRIDFORMAT
  1
GRIDFORMAT_BEGIN
 90
        0
 91
        1
 62
     0
 92
       -2
340
0
 93
        0
 40
1.125
309
GRIDFORMAT_END
 95
        8
302
GRIDFORMAT
  1
GRIDFORMAT_BEGIN
 90
        0
 91
        1
 62
     0
 92
       -2
340
0
 93
        0
 40
1.125
309
GRIDFORMAT_END
 95
       16
302
GRIDFORMAT
  1
GRIDFORMAT_BEGIN
 90
        0
 91
        1
 62
     0
 92
       -2
340
0
 93
        0
 40
1.125
309
GRIDFORMAT_END
 95
       32
302
GRIDFORMAT
  1
GRIDFORMAT_BEGIN
 90
        0
 91
        1
 62
     0
 92
       -2
340
0
 93
        0
 40
1.125
309
GRIDFORMAT_END
309
TABLEFORMAT_END
  1
CELLSTYLE_BEGIN
 90
        2
 91
        1
300
_HEADER
309
CELLSTYLE_END
300
CELLSTYLE
  1
TABLEFORMAT_BEGIN
 90
        5
170
     1
 91
        0
 92
        0
 62
   257
 93
        1
300
CONTENTFORMAT
  1
CONTENTFORMAT_BEGIN
 90
        0
 91
        0
 92
      512
 93
        0
300

 40
0.0
140
1.0
 94
        2
 62
     0
340
11
144
4.5
309
CONTENTFORMAT_END
171
     1
301
MARGIN
  1
CELLMARGIN_BEGIN
 40
1.5
 40
1.5
 40
1.5
 40
1.5
 40
4.5
 40
4.5
309
CELLMARGIN_END
 94
        6
 95
        1
302
GRIDFORMAT
  1
GRIDFORMAT_BEGIN
 90
        0
 91
        1
 62
     0
 92
       -2
340
0
 93
        0
 40
1.125
309
GRIDFORMAT_END
 95
        2
302
GRIDFORMAT
  1
GRIDFORMAT_BEGIN
 90
        0
 91
        1
 62
     0
 92
       -2
340
0
 93
        0
 40
1.125
309
GRIDFORMAT_END
 95
        4
302
GRIDFORMAT
  1
GRIDFORMAT_BEGIN
 90
        0
 91
        1
 62
     0
 92
       -2
340
0
 93
        0
 40
1.125
309
GRIDFORMAT_END
 95
        8
302
GRIDFORMAT
  1
GRIDFORMAT_BEGIN
 90
        0
 91
        1
 62
     0
 92
       -2
340
0
 93
        0
 40
1.125
309
GRIDFORMAT_END
 95
       16
302
GRIDFORMAT
  1
GRIDFORMAT_BEGIN
 90
        0
 91
        1
 62
     0
 92
       -2
340
0
 93
        0
 40
1.125
309
GRIDFORMAT_END
 95
       32
302
GRIDFORMAT
  1
GRIDFORMAT_BEGIN
 90
        0
 91
        1
 62
     0
 92
       -2
340
0
 93
        0
 40
1.125
309
GRIDFORMAT_END
309
TABLEFORMAT_END
  1
CELLSTYLE_BEGIN
 90
        3
 91
        2
300
_DATA
309
CELLSTYLE_END
  0
ENDSEC
  0
EOF
